Miles Away

A

Tom: A
Intro (0:01) 
G|----------------|----------------|----------------|----------------| 
D|----------------|----------------|----------------|----------------| 
A|--------------4-|(4)-4-5-----5---|--------------4-|(4)-4-5-----5---| 
E|5---5---5---5---|----------------|5---5---5---5---|----------------| 

G|----------------|----------------|----------------|----------------|| 
D|----------------|----------------|----------------|----------------|| 
A|--------------4-|(4)-4-5-----5---|4---4---4---4-5-|(5)-5---5---5---|| 
E|5---5---5---5---|----------------|----------------|----------------|| 

verse 1 (0:10) 
G|----------------|----------------|----------------|----------------| 
D|----------------|----------------|----------------|----------------| 
A|--------------4-|(4)-4-5-----5---|--------------4-|(4)-4-5-----5---| 
E|5---5---5---5---|----------------|5---5---5---5---|----------------| 

G|----------------|----------------|----------------|----------------| 
D|----------------|----------------|----------------|----------------| 
A|--------------4-|(4)-4-5-----5---|4---4---4---4-5-|(5)-5---5---5---| 
E|5---5---5---5---|----------------|----------------|----------------| 

G|----------------|----------------|----------------|----------------| 
D|----------------|----------------|----------------|----------------| 
A|--------------4-|(4)-4-5-----5---|--------------4-|(4)-4-5-----5---| 
E|5---5---5---5---|----------------|5---5---5---5---|----------------| 

G|----------------|----------------|| 
D|----------------|----------------|| 
A|--------------4-|(4)-4-5-----5---|| 
E|5---5---5---5---|----------------|| 

Pre-Chorus A (0:28) 
G|----------------|----------------|----------------|----------------| 
D|----------------|----------------|----------------|----------------| 
A|4---4---4---4-5-|(5)-5---5---5---|4---4---4---4---|----------------| 
E|----------------|----------------|--------------5-|(5)-5---5---5---| 

G|----------------|----------------|----------------|----------------|| 
D|----------------|----------------|----------------|----------------|| 
A|4---4---4---4-5-|(5)-5---5---5---|----------------|----------------|| 
E|----------------|----------------|7---7---7---7---|7---7---7---7---|| 

Chorus (0:38) 
G|----------------|----------------|----------------|----------------| 
D|----------------|----------------|----------------|----------------| 
A|4---4---4---4-5-|(5)-5---5---5---|4---4---4---4---|----------------| 
E|----------------|----------------|--------------5-|(5)-5---5---5---| 

G|----------------|----------------|----------------|----------------| 
D|----------------|----------------|----------------|----------------| 
A|4---4---4---4-5-|(5)-5---5---5---|----------------|----------------| 
E|----------------|----------------|7---7---7---7---|7---7---7---7---| 

G|----------------|----------------|| 
D|----------------|----------------|| 
A|----------------|----------------|| 
E|7---7---7---7---|7---------------|| 

Interlude (0:50) 
G|----------------|----------------|----------------|----------------|| 
D|----------------|----------------|----------------|----------------|| 2x 
A|----------------|----------------|----------------|----------------|| 
E|5---5---5---5-3-|(3)-3---3---3---|5---5---5---5-3-|(3)-3---3---3---|| 

verse 2 (1:00) 
G|----------------|----------------|----------------|----------------| 
D|----------------|----------------|----------------|----------------| 
A|--------------4-|(4)-4-5-----5---|--------------4-|(4)-4-5-----5---| 
E|5---5---5---5---|----------------|5---5---5---5---|----------------| 

G|----------------|----------------|----------------|----------------| 
D|----------------|----------------|----------------|----------------| 
A|--------------4-|(4)-4-5-----5---|4---4---4---4-5-|(5)-5---5---5---| 
E|5---5---5---5---|----------------|----------------|----------------| 

G|----------------|----------------|----------------|----------------| 
D|----------------|----------------|----------------|----------------| 
A|--------------4-|(4)-4-5-----5---|--------------4-|(4)-4-5-----5---| 
E|5---5---5---5---|----------------|5---5---5---5---|----------------| 

G|----------------|----------------|| 
D|----------------|----------------|| 
A|--------------4-|(4)-4-5-----5---|| 
E|5---5---5---5---|----------------|| 

Pre-Chorus A (1:17) 
G|----------------|----------------|----------------|----------------| 
D|----------------|----------------|----------------|----------------| 
A|4---4---4---4-5-|(5)-5---5---5---|4---4---4---4---|----------------| 
E|----------------|----------------|--------------5-|(5)-5---5---5---| 

G|----------------|----------------|----------------|----------------|| 
D|----------------|----------------|----------------|----------------|| 
A|4---4---4---4-5-|(5)-5---5---5---|----------------|----------------|| 
E|----------------|----------------|7---7---7---7---|7---7---7---7---|| 

Chorus (1:27) 
G|----------------|----------------|----------------|----------------| 
D|----------------|----------------|----------------|----------------| 
A|4---4---4---4-5-|(5)-5---5---5---|4---4---4---4---|----------------| 
E|----------------|----------------|--------------5-|(5)-5---5---5---| 

G|----------------|----------------|----------------|----------------| 
D|----------------|----------------|----------------|----------------| 
A|4---4---4---4-5-|(5)-5---5---5---|----------------|----------------| 
E|----------------|----------------|7---7---7---7---|7---7---7---7---| 

G|----------------|----------------|| 
D|----------------|----------------|| 
A|----------------|----------------|| 
E|7---7---7---7---|7---------------|| 

Interlude 2 (1:39) 
G|----------------|----------------|----------------|----------------| 
D|4---4---4---4---|4---4---4---4---|4---4---4---4---|4---4---4---4---| 
A|----------------|----------------|----------------|----------------| 
E|----------------|----------------|----------------|----------------| 

G|----------------|----------------|----------------|----------------| 
D|----------------|----------------|------9---------|----------------| 
A|6---6---6---6---|6---6---6---6---|7-----------7---|7---7---7---7---| 
E|----------------|----------------|----------------|----------------| 

G|----------------|----------------|----------------|----------------| 
D|4---4---4---4---|4---4---4---4---|4---4---4---4---|4---4---4---4---| 
A|----------------|----------------|----------------|----------------| 
E|----------------|----------------|----------------|----------------| 

G|----------------|----------------|----------------|----------------|| 
D|----------------|----------------|----------------|----------------|| 
A|6---6---6---6---|6---6---6---6---|7---7---7---7---|7---7---7---7---|| 
E|----------------|----------------|----------------|----------------|| 

Guitar Solo (1:59) 
G|----------------|----------------|----------------|----------------| 
D|----------------|----------------|----------------|----------------| 
A|--------------2-|(2)-2-3-----3---|--------------2-|(2)-2-3-----3---| 
E|3---3---3---3---|----------------|3---3---3---3---|----------------| 

G|----------------|----------------|----------------|----------------| 
D|----------------|----------------|----------------|----------------| 
A|--------------4-|(4)-4-5-----5---|--------------4-|(4)-4-5-----5---| 
E|5---5---5---5---|----------------|5---5---5---5---|----------------| 

G|----------------|----------------|----------------|----------------|| 
D|----------------|----------------|----------------|----------------|| 
A|----------------|----------------|----------------|----------------|| 
E|7---7---7---7---|7---7---7---7---|7---7---7---7---|7---7---7---7---|| 

Pre-Chorus B (2:14) 
G|----------------|----------------|----------------|----------------| 
D|----------------|----------------|----------------|----------------| 
A|----------------|----------------|----------------|----------------| 
E|----------------|----------------|----------------|----------------| 

G|----------------|----------------|----------------|----------------|| 
D|----------------|----------------|----------------|----------------|| 
A|----------------|----------------|----------------|----------------|| 
E|----------------|----------------|7---7---7---7---|7---7---7---7---|| 

Chorus (2:24) 
G|----------------|----------------|----------------|----------------| 
D|----------------|----------------|----------------|----------------| 
A|4---4---4---4-5-|(5)-5---5---5---|4---4---4---4---|----------------| 
E|----------------|----------------|--------------5-|(5)-5---5---5---| 

G|----------------|----------------|----------------|----------------|| 
D|----------------|----------------|----------------|----------------|| 4x 
A|4---4---4---4-5-|(5)-5---5---5---|----------------|----------------|| 
E|----------------|----------------|7---7---7---7---|7---7---7---7---|| 

G|----------------|----------------|| 
D|----------------|----------------|| 
A|----------------|----------------|| 
E|7---7---7---7---|7---------------|| 

Outro (3:06) 
G|----------------|----------------|----------------|----------------|| 
D|----------------|----------------|----------------|----------------|| 2x 
A|----------------|----------------|----------------|----------------|| 
E|5---5---5---5-3-|(3)-3---3---3---|5---5---5---5-3-|(3)-3---3---3---|| 

G|----------------|----------------|----------------|----------------|| 
D|----------------|----------------|----------------|----------------|| 
A|----------------|----------------|----------------|----------------|| 
E|5---------------|(5)-------------|(5)-------------|(5)-------------|| 

*********************************** 

| ()  Held note 

*********************************** 

Compartilhe esta música: novo

QR Code
Copiar