Tom: D
Intro:
 
e|-4-5-5-5-5-5-4-5-5-5-5-5-4-4-2-0----------| 
B|-5-7-7-7-7-7-5-7-7-7-7-7-5-5-0---2--------| 
G|------------------------------------------| 
D|------------------------------------------| 
A|------------------------------------------| 
E|------------------------------------------| 


 
e|-12-12-12-12-10-10-9-9-9-9-7-7-9----------| 
B|------------------------------------------| 
G|-13-13-13-13-11-11-9-9-9-9-7-7-9----------| 
D|------------------------------------------| 
A|----------------------------------0-2-4---| 
E|------------------------------------------| 


 
e|-4-5-5-5-5-5-4-5-5-5-5-5-4-4-2-0----------| 
B|-5-7-7-7-7-7-5-7-7-7-7-7-5-5-0---2--------| 
G|------------------------------------------| 
D|------------------------------------------| 
A|------------------------------------------| 
E|------------------------------------------| 


 
e|-12-12-12-12-10-10-9-9-9-9-7-7-5----------| 
B|------------------------------------------| 
G|-13-13-13-13-11-11-9-9-9-9-7-7-6----------| 
D|------------------------------------------| 
A|------------------------------------------| 
E|------------------------------------------| 


(riff 1) 
 
e|--------------| 
B|--------------| 
G|--------------| 
D|--------------| 
A|-0-2-4--------| 
E|--------------| 

D A Eu quero que risque o meu nome da sua agenda E D A A7 Esqueça o meu telefone não me ligue mais D A Porque já estou cansado de ser o remédio E ( D ) (E) A Pra curar o seu tédio, quando seus amores não lhe satisfaz E D A Cansei de ser o seu palhaço, fazer o que sempre quis E D A Cansei de curar sua fossa, quando você não se sentia feliz E D A Por isso é que decidi, o meu telefone cortar E ( D ) (E) A Você vai discar varias vezes, telefone mudo não pode chamar ( D E A E A )

Compartilhe esta música: novo

QR Code
Copiar