Tom: E
Intro.:: 2x 
 
                 
  F#m       A 
e|-------------------------------------------------- 
B|-------------------------------------------------- 
G|-------------------------------------------------- 
D|-------------------------------------------------- 
A|-------2------------------------------------------ 
E|-0-2^4---4-2-0---2-----2-4-5----------------------  
               E 
e|-------8------------------------------------------ 
B|-9-11---11-9-8----------8------------------------- 
G|-------------------9-11---11-9-9------------------ 
D|-------------------------------------------------- 
A|-------------------------------------------------- 
E|--------------------------------------------------
E Queria tanto te dizer que eu ja nao te amo B Que seu amor em minha vida foi mais um engano F#m Até quando eu tenho que fingir A B E Se a minha boca morre de vontade do seu beijo E Queria esquecer voce apenas um momento B Mas nunca consegui tirar voce do pensamento F#m Quando eu digo que nao devo te amar A B E F#m G#m O meu coraçao me diz te quero e nao tem jeito A Eu sempre fiz de tudo pra me apaixonar E Até um dia alguem deixar saudade no meu peito B A B E Agora eu tenho medo, agora eu tenho medo A Voce chegou me deixou sem saida B E Me fez te querer quando eu nao mais queria B Voce me fez amar quando eu dizia nao A E acreditar que no seu coração B E tinha um grande amor que eu sonhei um dia A Voce chegou quando a dor mais doia B E E me encontrou quando eu me perdia B Acho que foi Deus que te mandou pra mim A Pra recomeçar e me fazer feliz B E Por toda vida
INTRO 1x 
 
                   F#m       A 
e|-------------------------------------------------- 
B|-------------------------------------------------- 
G|-------------------------------------------------- 
D|-------------------------------------------------- 
A|-------2------------------------------------------ 
E|-0-2^4---4-2-0---2-----2-4-5----------------------  
               E 
e|-------8------------------------------------------ 
B|-9-11---11-9-8----------8------------------------- 
G|-------------------9-11---11-9-9------------------ 
D|-------------------------------------------------- 
A|-------------------------------------------------- 
E|--------------------------------------------------
F#m G#m A Eu sempre fiz de tudo pra me apaixonar E Até um dia alguem deixar saudade no meu peito B A B E Agora eu tenho medo, agora eu tenho medo A Voce chegou me deixou sem saida B E Me fez te querer quando eu nao mais queria B Voce me fez amar quando eu dizia nao A E acreditar que no seu coração B E tinha um grande amor que eu sonhei um dia A Voce chegou quando a dor mais doia B E E me encontrou quando eu me perdia B Acho que foi Deus que te mandou pra mim A Pra recomeçar e me fazer feliz B E Por toda vida
e|-------------5---6^8------0----------------------- 
B|-5-6^8-6-5-6--------------0----------------------- 
G|--------------------------1----------------------- 
D|--------------------------2----------------------- 
A|--------------------------2----------------------- 
E|--------------------------0-----------------------
Lenon Cristian [email protected] [email protected] [email protected] (msn) AFA_LeNoN_dGrS_ (ZoneFriends)

Compartilhe esta música: novo

QR Code
Copiar