Tom: G
Intro: 

d|-------9-12-10--7-9-10-9-7---------7-10-14-12--10-9-10-12-| 
B|-----8---------------------8-7---7------------------------| 
G|---7---------------------------7--------------------------| 
D|-9--------------------------------------------------------| 

d|-------9-12-10--7-9-10-9-7--------------7-9---------| 
B|-----8---------------------8-7------7-8-----8-7-----| 
G|---7----------------------------7-9-------------9-7-| 
D|-9--------------------------------------------------| 
Você sabe o que é caviar? D7 G Nunca vi, nem comi, eu só ouço falar Você sabe o que é caviar? D7 G Nunca vi, nem comi, eu só ouço falar
G Em Am Caviar é comida de rico curioso fico, só sei que se come C D7 Na mesa de poucos fartura adoidado G Mas se olha pro lado depara com a fome G Sou mais ovo frito, farofa e torresmo G7 C Pois na minha casa é o que mais se consome D7 G Por isso, se alguém vier me perguntar Em Am D7 G ...O que é caviar? só conheço de nome
Você sabe o que é caviar? D7 G Nunca vi, nem comi, eu só ouço falar Você sabe o que é caviar? D7 G Nunca vi, nem comi, eu só ouço falar
G Em Geralmente quem come esse prato tem bala na agulha Am Não é qualquer um D7 Quem sou eu pra tirar essa chinfra G Se vivo na vala pescando muçum G Mesmo assim não reclamo da vida G7 C Apesar de sofrida, consigo levar D7 G Um dia eu acerto numa loteria Em Am D7 G ...E dessa iguaria até posso provar..
Você sabe o que é caviar? D7 G Nunca vi, nem comi, eu só ouço falar Você sabe o que é caviar? D7 G Nunca vi, nem comi, eu só ouço falar
Repete Tudo
 
Solo 

d|----0-5-4-5-6-7--4-5-7-5-4-2-0--4-2-0---2---0------------------| 
B|--0-----------------------------------0-4/5---0----0-3-3-1h3p1-| 
G|0-----------------------------------------------0--------------| 
D|--------------------------------------------------0------------| 

d|------------------------------------------------------0-1-2--| 
B|--------------------------------------------------0-1--------| 
G|-2---------------------------------------------0-2-----------| 
D|----4-2-1-0-2-1-0-2-1-0-2-1-0-2-1-0-2-1-0-2-4----------------| 

Compartilhe esta música: novo

QR Code
Copiar