Sleeping Dogs

Zakk Wylde

Tom: Bb
Intro: (Cm) Gm Eb 


                   (Cm) 
E|-----------------------------------------------| 
B|-----------------------------------------------| 
G|-----------------------------------------------| 
D|----------------3-----3------------------------| 
A|------------3h5---3h5---5p3--------------------| 
E|-----------------------------------------------| 


                   (Gm Eb) 
E|-----------------------------------------------| 
B|-------------------3b----------------5b--------| 
G|----------5s7--5---3b-----7b8r7-5-3--5b-p3-----| 
D|-----------------------5-------------------5---| 
A|-----------------------------------------------| 
E|-----------------------------------------------| 

Gm                    Eb 
You couldn´t find your peace 
Gm                         Eb 
Within the bitterness that burns 
Gm                         F 
For the sleeping dogs that lie 
Eb 
Forever to return, forever to return 

Cm             Gm 
Gone but not forgotten 
F                            Eb 
You cut me down just to watch me bleed 
Cm            Gm 
Gone but not forgotten 
F                                        Eb 
I gave you the last word and that´ the last thing you'll take from me 

(Intro) 

Gm                  Eb 
Isn´t justice that you hope? 
Gm                       Eb 
Believe in the story that you sell 
Gm                     F 
For the sleeping dogs that lie 
Eb 
They are live and well, live and well 

Cm              Gm 
Gone but not forgotten 
F                             Eb 
You cut me down just to watch me bleed 
Cm              Gm 
Gone but not forgotten 
F                                       Eb 
I gave you the last word and that´ the last thing you take from me 

(Intro)  

(Solo) 


Cm              Gm 
Gone but not forgotten 
F                             Eb 
You cut me down just to watch me bleed 
Cm              Gm 
Gone but not forgotten 
F                                       Eb 
I gave you the last word and that´ the last thing you take from me 


(Intro) 

Eb                       Gm 
Last thing you take from me 
Eb                           Gm 
The last thing you take from me 

Compartilhe esta música: novo

QR Code
Copiar