Lost Prayer

Zakk Wylde

Tom: F
Intro 
e|---------------------------------------------------------------------------| 
B|---------------------------------------------------------------------------| 
G|----------5h7---5----------------------------------------------------------| 
D|-3--5/7----------- 7---------------5--5h7-5-----5--------------------------| 
A|-----------------------3---5---7-------------7-----------------------------| 
E|---------------------------------------------------------------------------| 

e|--------5------------------------5-----------------------------------------| 
B|--------5h6-5---------------------5----------------------------------------| 
G|-----7--------7---------------5----5---------------------------------------| 
D|---7-----------------------7-----------------------------------------------| 
A|-5-------------------------------------------------------------------------| 
E|-----------------------5---------------------------------------------------| 
Rhythm is F C Dm Am G but you play riff verse 1 Riff F C You say that you're damned Dm Am G You say that your life isn't fair F C What's right and what's wrong Dm Am G You've got your needs and you just don't care F C On and on we drift Dm Am G Back to where we were before F C You can welcome me in Dm Am I will not walk through that door G Oh, no, no.
C G Dm Dm I may be blind but I'll find my way C Am F Like a lost prayer on stormy day F Oh, stormy day
SOLO
e|---------------------------------------------------------------------------| 
B|---------------------------------------------------------------------------| 
G|----------5h7---5----------------------------------------------------------| 
D|-3--5/7----------- 7---------------5--5h7-5-----5--------------------------| 
A|-----------------------3---5---7-------------7-----------------------------| 
E|---------------------------------------------------------------------------| 

e|--------5------------------------5-----------------------------------------| 
B|--------5h6-5---------------------5----------------------------------------| 
G|-----7--------7---------------5----5---------------------------------------| 
D|---7-----------------------7-----------------------------------------------| 
A|-5-------------------------------------------------------------------------| 
E|-----------------------5---------------------------------------------------| 
verse 2 Riff F C You can carry your grudge Dm I've severed these ties Am G And I've cut you free F C Keep your war to yourself Dm Am G I buried what was, and my sympathy F C On and on we drift Dm Am G Back to where we were before F C You can welcome me in Dm Am I will not walk through that door G Oh, no, no.
C G Dm Dm I may be blind but I'll find my way C Am F Like a lost prayer on stormy day F Oh, stormy day
Am G F x4 SOLO e|---------------------------------------------------------------------------| B|---------------------------------------------------------------------------| G|----------5h7---5----------------------------------------------------------| D|-3--5/7----------- 7---------------5--5h7-5-----5--------------------------| A|-----------------------3---5---7-------------7-----------------------------| E|---------------------------------------------------------------------------| e|--------5------------------------5-----------------------------------------| B|--------5h6-5---------------------5----------------------------------------| G|-----7--------7---------------5----5---------------------------------------| D|---7-----------------------7-----------------------------------------------| A|-5-------------------------------------------------------------------------| E|-----------------------5---------------------------------------------------|
C G Dm Dm I may be blind but I'll find my way C Am F Like a lost prayer on stormy day F Oh, stormy day
************************************ | h Hammer-on | / Slide up ************************************

Compartilhe esta música: novo

QR Code
Copiar