In This River

Zakk Wylde

Tom: Em
(intro) 

 
e|-------------------------------------------------------- 
B|-------12~---------------------------------------------- 
G|------------12~-13~-12~--10---12~-13~-12~--10b-10b------ 
D|-------------------------------------------------------- 
A|---10~-------------------------------------------------- 
E|-------------------------------------------------------- 
Em C I've been around this world G D Yet I see no end Em C G D All shall fade to black again and again Em C This storm that's broken me G D My only friend
G C In this river all shall fade to black G C In this river ain't no comin' back G A C In this river all shall fade to black
 
e|------------------------------------------------- 
B|------------------------------------------------- 
G|------------4~-5~-4~--2~----4~-5~-4~--2~---4~~--- 
D|------------------------------------------------- 
A|------------------------------------------------- 
E|------------------------------------------------- 
Em C G D Ain't no coming back Em C Withdrawn I step away G D Just to find myself Em C The door is closed again G D The only one left Em C This storm that's broken me G D My only friend

Compartilhe esta música: novo

QR Code
Copiar