Runaway

Yeah Yeah Yeahs

Tom: Em
Capotraste na 3ª casa
I couldn't find a tab for the piano part so I had a crack at it. My first tab,  
this is simply how I'd play it, by no means exact. I hope it's useful! 

 
Capo on 3rd 



Verse 
         Em               C                G               Am        x3 
e|--0-3---5---7---|3-0-3---5---7---|3---3---5---7---|3-2-3---2---0---|| 
B|----------------|----------------|--3-------------|----------------|| 
G|----------------|----------------|----------------|----------------|| 
D|----------------|----------------|----------------|----------------|| 
A|----------------|----------------|----------------|----------------|| 
E|----------------|----------------|----------------|----------------|| 
Em I was feeling sad C Can't help lookin back G Highways flew by Am Em Run, run away C No sense of time G Like you to stay Am Want to keep you inside
Chorus 
         Em               C                 G               Am       x3 
e|023-------------|023-----023-320-|20--------------|-02-----023---5-|| 
B|----------------|----------------|--3-------------|3---------------|| 
G|----------------|----------------|----------------|----------------|| 
D|----------------|----------------|----------------|----------------|| 
A|----------------|----------------|----------------|----------------|| 
E|----------------|----------------|----------------|----------------|| 
Em Run, run, run away C Lost, lost, lost my mind G Like you to stay Am Want you to be my prize Em Run, run, run away C Lost, lost, lost my mind G Like you to stay Am Want you to be my prize Verse
         Em               C                G               Am         
e|--023---5---7---|3-0-3---5---7---|3---3---5---7---|3-2-3---2---0---|| 
B|----------------|----------------|--3-------------|----------------|| 
G|----------------|----------------|----------------|----------------|| 
D|----------------|----------------|----------------|----------------|| 
A|----------------|----------------|----------------|----------------|| 
E|----------------|----------------|----------------|----------------|| 
         Em               C                G               Am         
e|--0-3---5---7---|3-0-3---5---7---|3---3---5---7---|3-2-3---2---0---|| 
B|----------------|----------------|--3-------------|----------------|| 
G|----------------|----------------|----------------|----------------|| 
D|----------------|----------------|----------------|----------------|| 
A|----------------|----------------|----------------|----------------|| 
E|----------------|----------------|----------------|----------------|| 
Em I was feeling sad C Can't help lookin back G Highways flew by Am Em Run, run away C No sense of time G Like you to stay Am Want to keep you inside
Instrumental 
         Em               C                G                Am       x3 
e|0---------------|0---------------|3---------------|0---------------|| 
B|0---------0-----|1---------1-3---|0---------0-----|1-------1---0---|| 
G|0-------0---0---|0-------0-------|0-------0---0---|2---------------|| 
D|2---------------|2---------------|0---------------|2---------------|| 
A|2---------------|3---------------|2---------------|0---------------|| 
E|0---------------|0---------------|3---------------|0---------------|| 

Verse 
         Em               C                 G               Am       x3 
e|023-------------|023-----023-320-|20--------------|-02-----023---5-|| 
B|----------------|----------------|--3-------------|3---------------|| 
G|----------------|----------------|----------------|----------------|| 
D|----------------|----------------|----------------|----------------|| 
A|----------------|----------------|----------------|----------------|| 
E|----------------|----------------|----------------|----------------|| 
Em All along, C not so strong without these G open arms. Am Hold on tight. Em All along, C not that strong without these G open arms. Am Lie beside. Em All along, C not so strong without these open arms. G Right beside. Am Vocal Chorus
         Em               C                 G               Am       x2 
e|023-------------|023-----023-320-|20--------------|-02-----023---5-|| 
B|----------------|----------------|--3-------------|3---------------|| 
G|----------------|----------------|----------------|----------------|| 
D|----------------|----------------|----------------|----------------|| 
A|----------------|----------------|----------------|----------------|| 
E|----------------|----------------|----------------|----------------|| 
Em Run, run, run away C Lost, lost, lost my mind G Like you to stay Am Want you to be my prize Em Run, run, run away C Lost, lost, lost my mind G Like you to stay Am Want you to be my prize Instrumental Ending - Ad lib or play the Instrumental part a couple of time.

Compartilhe esta música: novo

QR Code
Copiar