Tom: Bm
Intro: Bm  G  Bm  G   

     Bm 
Pack up 
     G 
I'm straight 
  Bm   
Enough 
    D 
Oh, say say say 
    Bm 
Oh, say say say     
    G 
Oh, say say say     
    Em 
Oh, say say say     
    G 
Oh, say say say 

Bm                       G 
Wait, they don't love you like I love you 
Bm                       G 
Wait, they don't love you like I love you 
Bm    G      Bm 
Ma-a-a-a-ps, wait! 
                    G 
They don't love you like I love you... 

Bm  G  Em  G 

     Bm   
Made off       
      G 
Don't stray 
   Bm 
My kind's your kind  
     D 
I'll stay the same 
     Bm 
Pack up 
      G 
Don't stray 
    Em 
Oh, say say say 
    G 
Oh, say say say 

Bm               G 
Wait! They don't love you like I love you 
Bm               G 
Wait! They don't love you like I love you 
Bm   G      Bm 
Ma-a-a-aps, wait! 
           G 
They don't love you like I love you... 
Bm               G 
Wait! They don't love you like I love you 
Bm   G      Bm 
Ma-a-a-aps, wait! 
           G 
They don't love you like I love you... 

Solo 1 
D|--------------------------------------------------------------| 
A|-----10-10-10-9--10-9/------------9h10-10-10-9-14-14-------------| 
E|--7-------------------3-3-3-3-5-3/-------------------3-3-3-3h5p3p0-| 

D|------------------------------------------------------------------| 
A|--10-10-10-9--10-9--------------9h10-10-10-9-14-14--12-10---------| 
E|-------------------3-3-3-3-5-3/---------------------------3-3-3-3-| 

Solo 2 
e|--------------------------------------| 
B|----8---8---8---8----5---5---3--3---8-| 
G|--12--12--12--12---9---9---7--7---12--| 
Bm G Wait! They don't love you like I love you Bm G Wait! They don't love you like I love you Bm G Bm Ma-a-a-aps, wait! G They don't love you like I love you... Bm G Wait! They don't love you like I love you Bm G Bm Ma-a-a-aps, wait! G They don't love you like I love you... Solo 1 (Bm G) Fim: e|-10-10-10-10-10-10-10-10-10-10-10-|

Compartilhe esta música: novo

QR Code
Copiar