Eu Estarei Pensando Em Você

Yahoo

Tom: C
Intro: C  G  Am  F  C  G  Am  F  Am  G 
 
Solo: 
E|-3-3-1-0-------------------------------------| 
e|---------3---3-3-5-6-5--1-1-3-5-3-1-0--------| 
G|--------------------------------------2-0----| 
D|---------------------------------------------| 
A|---------------------------------------------| 
E|---------------------------------------------| 

e|-3-3-1-0-------------------------------------| 
B|---------3---3-3-5-6-5--1-1-3-5/6-5-3-1-0-1--| 
G|---------------------------------------------| 
D|---------------------------------------------| 
A|---------------------------------------------| 
E|---------------------------------------------| 

e|--------------------------------| 
B|-1-0-1---1-0-1--1-0-1-----------| 
G|--------------------------------| 
D|--------------------------------| 
A|--------------------------------| 
E|--------------------------------| 
 
C G Longe de mim Am Tempo de mais F C Eu não penso em mais ninguém G Ouvir tua voz Am Me dá paz F C Mas me faz sofrer também G Am Se eu nunca te tenho perto F C Se tudo ficou incerto
G Em qualquer lugar Am Em toda canção F C Eu estarei pensando em você G Am Se eu não te encontrar no meu coração F C G C Eu estarei pensando em você
 
e|--------------------------------| 
B|-1-0-1---1-0-1--1-0-1-----------| 
G|--------------------------------| 
D|--------------------------------| 
A|--------------------------------| 
E|--------------------------------| 
G Eu duvidava Am Fui atrás F C Só do que eu queria ver G Am Se eu pudesse voltava os dias F C Pra não ter que te perder G Am Se longe lá de fora F C Você me visse agora
G Em qualquer lugar Am Em toda canção F C Eu estarei pensando em você G Am Se eu não te encontrar no meu coração F C Eu estarei pensando em você G Am Se o amor puder sobreviver F C Só eu sei G Am O que eu faria pra te ver F Mais uma vez
Solo: 
e|-3-3-1-0-------------------------------------| 
B|---------3---3-3-5-6-5--1-1-3-5-3-1-0--------| 
G|--------------------------------------2-0----| 
D|---------------------------------------------| 
A|---------------------------------------------| 
E|---------------------------------------------| 

e|-3-3-1-0-------------------------------------| 
B|---------3---3-3-5-6-5--1-1-3-5/6-5-3-1-0-1--| 
G|---------------------------------------------| 
D|---------------------------------------------| 
A|---------------------------------------------| 
E|---------------------------------------------| 

e|--------------------------------| 
B|-1-0-1---1-0-1--1-0-1-----------| 
G|--------------------------------| 
D|--------------------------------| 
A|--------------------------------| 
E|--------------------------------| 
 
Se longe lá de fora Você me visse agora
G Em qualquer lugar Am Em toda canção F C Eu estarei pensando em você G Am Se eu não te encontrar no meu coração F C Eu estarei pensando em você (2x)
Solo: 
e|-3-3-1-0-------------------------------------| 
B|---------3---3-3-5-6-5--1-1-3-5-3-1-0--------| 
G|--------------------------------------2-0----| 
D|---------------------------------------------| 
A|---------------------------------------------| 
E|---------------------------------------------| 

e|-3-3-1-0-------------------------------------| 
B|---------3---3-3-5-6-5--1-1-3-5/6-5-3-1-0-1--| 
G|---------------------------------------------| 
D|---------------------------------------------| 
A|---------------------------------------------| 
E|---------------------------------------------| 

e|-0---------------------| 
B|-1---------------------| 
G|-0---------------------| 
D|-2---------------------| 
A|-3---------------------| 
E|-----------------------|

Compartilhe esta música: novo

QR Code
Copiar