Verwesung

Wizo

Tom: D
Intro 
   D          C       D A    D        C        D  
e|-------------------------|----------------------| 
B|-------------------------|-6--------------------| 
G|-7---9-10-9-7-5-5-9-7----|-7--9-10-9-7-5-5-9-7--| 
D|-x---x-x--x-x-x-x-x-x----|-x--x-x--x-x-x-x-x-x--| 
A|-5---7-8--7-5-3-3-7-5----|-5--7-8--7-5-3-3-7-5--| 
E|----------------------5--|----------------------| 
Verse D F Jeden morgen das Gleiche, C D immer der selbe Scheiß. D F Keine Chance auf Ausbruch, C D und es ist wieder soweit. D F Geh' zur Arbeit weils sein muss, C D bin ein Teil des Systems. D F Miete zahlen und fressen C D lassen sich nicht umgehn Bridge 1 A# C D Und die Zeit rennt vorbei und es ist nichts mit mir passiert. A# C D Auf dem Weg in mein Grab ist es nur stumpfsinnig und stier. A# C D Und das bisschen Leben hat den Namen kaum verdient, G A weil ausser Verwesung nichts geschieht.
D A# C F Verwesung, Verwesung, Verwe-e-sung! A# G A Das Leben ist vorbei, schon lang bevors begonnen hat. D A# C F Verwesung, Verwesung, Verwe-e-sung! A# G A Mein Dasein ist nur Illusion und findet niemals statt.
Solo
   D          C       D A    D        C        D  
e|-------------------------|----------------------| 
B|-------------------------|-6--------------------| 
G|-7---9-10-9-7-5-5-9-7----|-7--9-10-9-7-5-5-9-7--| 
D|-x---x-x--x-x-x-x-x-x----|-x--x-x--x-x-x-x-x-x--| 
A|-5---7-8--7-5-3-3-7-5----|-5--7-8--7-5-3-3-7-5--| 
E|----------------------5--|----------------------| 
Verse D F Wir leben nebeneinander, C D jeder in seinem Tran. D F Es gibt kein Miteinander, C D das passt nicht in den Plan. D F Unsere Isolationshaft, C D ist bunt und digital. D F Unsere Seelen verkrüppelt, C D die Konsequenzen brutal. Bridge 2 A# C D Und die Zeit rennt vorbei und es ist nichts mit uns passiert. A# C F D Auf dem Weg ins Grab ist es nur stumpfsinnig und stier. A# C F D Und das bisschen Leben hat den Namen nicht verdient, A# G A weil ausser Verwesung nichts geschieht.
D A# C F Verwesung, Verwesung, Verwe-e-sung! A# G A Das Leben ist vorbei, schon lang bevors begonnen hat. D A# C F Verwesung, Verwesung, Verwe-e-sung! A# G A Mein Dasein ist nur Illusion und findet niemals statt. D A# C F Verwesung, Verwesung, Verwe-e-sung! A# G A Das Leben ist vorbei, schon lang bevors begonnen hat. D A# C F Verwesung, Verwesung, Verwe-e-sung! A# G A Mein Dasein existiert nicht und heute mittag gibt’s Spinat.
Outro D C D A D C D e|-------------------------|----------------------| B|-------------------------|-6--------------------| G|-7---9-10-9-7-5-5-9-7----|-7--9-10-9-7-5-5-9-7--| D|-x---x-x--x-x-x-x-x-x----|-x--x-x--x-x-x-x-x-x--| A|-5---7-8--7-5-3-3-7-5----|-5--7-8--7-5-3-3-7-5--| E|----------------------5--|----------------------|

Compartilhe esta música: novo

QR Code
Copiar