Kein Empfang

Wizo

Tom: Fm
(Intro: Bass, danach Gitarre) 

1. Strophe: 

Fm                  Cm 
  Es sind diese Momente, 
Fm                  Cm 
  in denen ich es spür'. 
Fm                  Cm 
  Es sind diese Momente, 
Bm                  Cm 
  in denen fehlst Du mir. 
Fm                       Cm 
  Dann wähle ich Deine Nummer, 
Fm                             Cm 
  seit meiner Kindheit noch gleich. 
Fm                            Cm 
  Doch unter dieser scheiß Nummer 
Bbm                           Cm 
  werd ich Dich nicht erreichen,  

Fm Bbm Denn da wo Du jetzt bist, da geht keiner ran, Db C denn da hat niemand mehr Empfang. Fm Bbm Und darum steh ich hier, so wie ein Vollidiot, Db C Fm mit meinem Telefon in der Hand.
2. Strophe: Fm Cm Ich würde gern mit Dir reden, Fm Cm doch das geht leider nie mehr. Fm Cm Was ich Dir gerne sagen würde, Bbm Cm behalt' ich jetzt bei mir. Fm Cm Noch mal Deine Stimme hören, Fm Cm Mann, was gäb' ich dafür. Fm Cm Doch Du bist schon vorgegangen Bbm Cm und ich bin immer noch hier.
Fm Bbm Denn da wo Du jetzt bist, da geht keiner ran, Db C denn da hat niemand mehr Empfang. Fm Bbm Und darum steh ich hier, so wie ein Vollidiot, Db C Fm mit meinem Telefon in der Hand. Fm Bbm Denn da wo Du jetzt bist, da geht keiner ran, Db C denn da hat niemand mehr Empfang. Fm Bbm Und darum steh ich hier, so wie ein Vollidiot, Db C Fm mit meinem Telefon in der Hand.
(Solo Gitarre) (Solo Bass)
Fm Bbm Denn da wo Du jetzt bist, da geht keiner ran, Db C denn da hat niemand mehr Empfang. Fm Bbm Und darum steh ich hier, so wie ein Vollidiot, Db C Fm mit meinem Telefon in der Hand. Fm Bbm Denn da wo Du jetzt bist, da geht keiner ran, Db C denn da hat niemand mehr Empfang. Fm Bbm Und darum steh ich hier, so wie ein Vollidiot, Db C Fm mit meinem Telefon in der Hand.
Basslinie Intro/Strophe 
G-----------------------------------------------------------------| 
D-----------------------------------------------------------------| 
A---------3---3-----------3---3-----------3---3---1-1-1-4-3-1-----| 
E-1---1-4-------4-1-1-1-4-------4-1---1-4-------4-------------4-3-| 

Das wird bis außer beim Refrain immer wiederholt 

Gitarrenintro/Zwischenspiel 

e------8-------8--------8-9-8------------8-------8-------6-9-8-6---6-| 
h----9---9---8---8----9-------8---8----9---9---8---8---6---------9---| 
G-10-------8-------10-----------8---10-------8-------6---------------| 
D--------------------------------------------------------------------| 
A--------------------------------------------------------------------| 
E--------------------------------------------------------------------| 

Gitarre Strophe 

e----8---8---8---8---8---8---8---8---8---8---8---8---6---8-| 
h----9---9---8---8---9---9---8---8---9---9---8---8---6---8-| 
G---10--10---8---8--10--10---8---8--10--10---8---8---6---8-| 
D----------------------------------------------------------| 
A----------------------------------------------------------| 
E----------------------------------------------------------| 
  
Diese Gitarrenstimme sind eigntlich die Akkorde aus dem Intro immer auf den Offbeat (1+2+3+4+)  
gelegt. 

Gitarre 1 Refrain: 


e-----------------------------------------------------------------| 
h-----------------------------------------------------------------| 
G---------3-------6-------5---------------3-------6---5-----------| 
D-3-------3-------6-------5-------3-------3-------6---5---3-------| 
A-3-------1-------4-------3-------3-------1-------4---3---3-------| 
E-1-------------------------------1-----------------------1-------| 



Gitarre 2 Refrain/Solo 

e-----------------------------------------------------------------| 
h-----------------------------------------------------4-4-6-6-6---| 
G-------5-3-3-3-356-6-656-5-5-----------5-3-3-3-356-6--6-------5--| 
D-3-3-36----------------------4-4-3-3-36------------------------6-| 
A-----------------------------------------------------------------| 
E-----------------------------------------------------------------| 

e-----------------------------------------------------------------| 
h-----------------------------------------------------4-4-6-------| 
G-------5-3-3-3-356-6-656-5-5-----------5-3-3-3-356-6--6----------| 
D-3-3-36----------------------4-4-3-3-36--------------------------| 
A-----------------------------------------------------------------| 
E-----------------------------------------------------------------| 


Basssolo 

G-------------------------------------------------------------| 
D-------------------------------------------------------------| 
A---------3---3-----------3---3-----------3---3---1-1-1-4-3---| 
E-1---1-4-------4-1-1-1-4-------4-1---1-4-------4-------------| 

G-------------------------------------------------------------| 
D-3---3-1-------1-3-3-3-1-------1-3---3-1---------------------| 
A---------3---3-----------3---3-----------3---3---1-1-1-4-3---| 
E-----------------------------------------------4-------------| 

Compartilhe esta música: novo

QR Code
Copiar