Violent Love

Willie Dixon

Tom: F
Intro 

e|--5--8--5----------6-------5----------5------| 
B|------------6----------8----------6------6---| 
G|---------------7--------------7--------------| 
D|---------------------------------------------| 
A|---------------------------------------------| 
E|---------------------------------------------| 

e|--------------------------0------------------| 
B|--------------------------1------------------| 
G|--------------------------4------------------| 
D|--3--2--0-----------------2------------------| 
A|-----------3--1--0--------3------------------| 
E|--------------------3--1---------------------| 
Verse F Gm I want to make violent love F A# To you by the moon above F A# C F C7 I want to make violent love to you Verse F Gm I want to kiss every night F A# To squeeze and hold you tight F A# C F C7 I want to make violent love to you
Gm7 Am7 F I don't want to seem frantic Gm7 Am7 F I don't want to cramp your style Dm You drive me into a panic G7 C7 You almost drive me wild.
Verse F Gm I want to make whoopie too F A# And have a little fun with you F A# C F C7 I want to make violent love to you Solo
Gm7 Am7 F I don't want to be frantic Gm7 Am7 F I don't want to cramp your style Dm You drive me into a panic G7 C7 You almost drive me wild.
Verse F Gm I want to make whoopie too F A# And have a little fun with you F A# C F C7 I want to make violent love to you Outro

Compartilhe esta música: novo

QR Code
Copiar