You Are God Alone

William McDowell

Tom: G
Intro:  
e|----------------------------------------------------------------------| 
B|----------------------------------------------------------------------| 
G|----------------------------------------------------------------------| 
D|-----------------------------10-9~--9-10-12---------------------------| 
A|-------9--12-10~----9-10-12-----------------10~---10-9----------------| 
E|-10-12-------------------------------------------------12-10-12~------| 

e|----------------------------------------------------------------------| 
B|----------------------------------------------------------------------| 
G|----------------------------------------------------------------------| 
D|-------------------------------9-12----------------------------10-----| 
A|-\12-10-9-12-10~---------9-10-------10~----10-9----9-10--10-12--------| 
E|-------------------10-12------------------------12--------------------| 
verse 1: 2x G C You are not a god created by human hands G C You are not a god dependent on any mortal man G D Em C G You are not a god in need of anything we can give D G D C By Your plan that's just the way it is... Chorus: G You are God Alone D From before time began Em You were are Your Throne C You are God Alone G And right now D In the good times and bad Em You are on Your Throne C And You are God Alone
Riff 

e|--------------------------------------------------------------------------| 
B|--------------------------------------------------------------------------| 
G|--------------------------------------------------------------------------| 
D|-------9---12--------------------9---12-------------------9---12----------| 
A|-10-12---------10--12~-----10-12---------12--10~----10-12---------12--10~-| 
E|--------------------------------------------------------------------------| 


e|----------------------------| 
B|----------------------------| 
G|----------------------------| 
D|----------------------------| 
A|--10-9----9-10--10-12-10~---| 
E|-------12-------------------| 
verse 2: G C You're the only God whose Power none can contend G C You're the only God whose name and Praise will never end G D Em C G You're the only God whose worthy of everything we can give D G D C You are God that's just the way it is
G You are God Alone D From before time began Em You were are Your Throne C You are God Alone G And right now D In the good times and bad Em You are on Your Throne C And You are God Alone
Bridge: G D You're unchangeable (Unchangeable) You're Unshakable (Unshakable) G C Unstoppable (Unstoppable) That's who you are (That's who you are) G D You're unchangeable (Unchangeable) You're Unshakable (Unshakable) G C Unstoppable (Unstoppable) That's who you are (That's who you are) ***Key Change to G#***
G# You are God Alone From before time began You were are Your Throne Fm D# C# You are God Alone C# D# Fm And right now B5 A#5 A5 G#5 In the good times and bad G# You are on Your Throne Fm D# C# You are God Alone
Bridge: 3x then a break then 4x Fm D# You're unchangeable (Unchangeable) Unshakable (Unshakable) G# C# Unstoppable (Unstoppable) That's who you are (That's who you are) Chorus as an Outro

Compartilhe esta música: novo

QR Code
Copiar