The Lonely 1

Wilco

Tom: G
Capotraste na 5ª casa
 

Intro 
e|----3---2--------------------------| 
B|----3---3---3---0---1---0---3---0--| 
G|----0---0---0---0---0---0---0---0--| x2 
D|------------4---4---2---2---4---4--| 
A|----------5---5---3---3---5---5----| 
E|--3---3----------------------------| 
(intro over verse) x2 After the show you walked right past. Arms reached out for your autograph. And as you flashed your backstage pass. I caught your eye with a camera's flash. intro (intro over verse) x2 The band came out they stood behind you. Cymbals crashed, the lights went blue. You stood alone in the halo's haze. Shinny guitar hung on gold lamay. G C/G riff 1 And you, you were the lonely one. G C/G riff 1 You were the lonely one.
riff 1 
e|---------| 
B|------1--| 
G|------0--| 
D|--0h2----| 
A|---------| 
E|---------| 
intro x2 (intro over verse) x4 When you perform it's so intense. When the critics pan I write in your defense. I understand I'm just a fan, I'm just a fan. When I get home I turn off the alarm. I've checked the phone, no messages on. I play the ones from yesterday. I play you're song just to hear you say that G C/G riff 1 You, you're the lonely one. G C/G riff 1 You are the lonely one. G C/G riff 1 You, you're the lonely one. G C/G riff 1 You are the lonely one. Intro x2 G

Compartilhe esta música: novo

QR Code
Copiar