Magnetized

Wilco

Tom: D
Capotraste na 1ª casa
 

Verse/Bridge Chords: 

     D  Db   Bm  E   A   G   F#   G5     A5      B5   B5/A#   B5/A   B5/G# 
e |----------------------------------------------------------------------------| 
B |----------------------------------------------------------------------------| 
G |----------------------------------------------4-----4-------4------4--------| 
D |--4---3------------------------5------7-------4-----4-------4------4--------| 
A |--5---4---5---7---4---2---0----5------7-------2-----1-------0---------------| 
E |----------7---4---5---3---2----3------5----------------------------4--------|
Chorus Chords: 

     D5  D5/C#   B5   Em    Bbdim7    A5   
e |---------------------------------------| 
B |-------------------------(2)-----------| 
G |--7----7------4-----------0------------| 
D |--7----7------4----2------2--------7---| 
A |--5----4------2----2------1--------7---| 
E |-------------------0---------------5---| 
Verse: D Orchestrate the shallow pink refrigerator drone Db D Db D Carry in the shadows almost Bm E A Bm E A Everyone wastes my time D A woman that you thought would murder motions you to wait Db D Db D Every apprehension 8 AM ache Bm E A Bm E A Everyone wastes my time Bridge: Bm A G F# Everybody G5 A5 Goes B5 B5/A# B5/A B5/G# I'm G5 A5 Lonely
D5 D5/C# I sleep underneath B5 Em a picture that I keep of you next to me Bbdim7 I realize we're magnetized
D5 D5/C# B5 A5 Em A5 Verse: D Orchestrate the shallow pink refrigerator drone Db D Db D Carry in the shadows almost Bm E A Bm E A Everyone wastes my time
D5 D5/C# I sleep underneath B5 Em a picture that I keep of you next to me Bbdim7 D5 D5/C# B5 I realize we're magnetized Bbdim7 D5 D5/C# B5 A5 Em A5 I realize we're magnetized D5 D5/C# B5 Em Bbdim7 I realize we're magnetized D5 D5/C# B5 Em Bbdim7 I realize we're magnetized D5 D5/C# B5 A5 Em A5 D5

Compartilhe esta música: novo

QR Code
Copiar