A Cura (part. Lulu Santos)

Vitor Kley

Tom: E
Intro D  G  D  G 

   D                G 
E|-------0h2p0------------------------------| 
B|-----3-------3----------3-----------------| 
G|---2-----------2------0-------------------| 
D|-0------------------0---------------------| 
A|------------------------------------------| 
E|------------------3-----------------------| 

   D                G 
E|-------0h2p0------------------------------| 
B|-----3-------3----------3-----------------| 
G|---2-----------2------0-------------------| 
D|-0------------------0---------------------| 
A|------------------------------------------| 
E|------------------3-----------------------| 

Verso 1:

D F#m/C# Bm Em7 Existirá, em todo porto tremulará D Bm F#m A7 A velha bandeira da vida D F#m/C# Bm Em7 Acenderá todo farol iluminará D A7 G Uma ponta de esperança D F#m/C# Bm Em7 E se virá, será quando menos se esperar D Bm F#m A7 Da onde ninguém imagina D F#m/C# Bm Em7 Demolirá, toda certeza vã, não sobrará D A7 D Pedra sobre pedra

Verso 2:

Em7 Bm7(11) D A7 Enquanto isso não nos custa insistir Em7 Bm7(11) D A Na questão do desejo, não deixar se extinguir C G A Bm7(11) Desafiando de vez a noção E7 A7 A4(6) A7 A6 Na qual se crê que o infe________rno é aqui Riff
   A7 A4(6) A7 A6 
E|------------------------------------------| 
B|-2--3-----5--7----------------------------| 
G|------------------------------------------| 
D|-2--4-----5--7----------------------------| 
A|-0----------------------------------------| 
E|------------------------------------------| 
D F#m/C# Existirá Bm Em7 E toda raça então experimentará D A G Para todo o mal, a cura D G A G Iê, iê, na-na-ná D G A G Iê, iê, na-na-ná

Verso 2:

D F#m/C# Bm Em7 Existirá, em todo porto tremulará D Bm F#m A7 A velha bandeira da vida D F#m/C# Bm Em7 Acenderá todo farol iluminará D A7 G Uma ponta de esperança D F#m/C# Bm Em7 E se virá, será quando menos se esperar D Bm F#m A7 Da onde ninguém imagina D F#m/C# Bm Em7 Demolirá, toda certeza vã, não sobrará D A7 D Pedra sobre pedra

Verso 3:

Em7 Bm7(11) D A7 Enquanto isso não nos custa insistir Em7 Bm7(11) D A Na questão do desejo, não deixar se extinguir C G A Bm7(11) Desafiando de vez a noção E7 A7 A4(6) A7 A6 Na qual se crê que o infe________rno é aqui
D F#m/C# Existirá Bm Em7 E toda raça então experimentará D A G Para todo o mal, a cura, a cura D G A G Iê, iê, na-na-ná D G A G Iê, iê, na-na-ná D G A G Iê, iê, na-na-ná D G A G Iê, iê, na-na-ná

Verso 2:

Em7 Bm7(11) D A7 Enquanto isso não nos custa insistir Em7 Bm7(11) D A Na questão do desejo, não deixar se extinguir C G A Bm7(11) Desafiando de vez a noção E7 A7 A4(6) A7 A6 Na qual se crê que o infe________rno é aqui
D F#m/C# Existirá Bm Em7 E toda raça então experimentará D A G Gm D Para todo o mal, a cura

Compartilhe esta música: novo

QR Code
Copiar