Que Vas A Hacer Tan Sola Hoy

Viejas Locas

Tom: Am
Intro: Riff (A-B)   Base I :  Am-Bm x 4 

Riff: A 

1----------------------------------------------------} 
2----------------------------------------------------} 
3----------------------------------------------------} 
4-----------77-55---57----------77---57--------------} 
5-----------------7----------------7-----------------} 
6-----55-------------------55------------------------} 

Riff: B 

1-------------------------------------------------} 
2-------------------------------------------------} 
3-------------------------------------------------} 
4----------99--77---79----------99--77---7--------} 
5-----------------9--------------------9----------} 
6-----77-------------------77---------------76(5)-} 

Yeite: 

 A                                              B 
1-----------------------------------/--------------------} 
2----------------------------------/---------------------} 
3---------------------------------/----------------------} 
4--------------------------------/-----------------------} 
5-------------------------------/------------------------} 
6---55--5555--555--5555--------/---77--7777--777--7777---}
Am Nos conocimos de casualidad Bm vos ibas en tu auto y yo por la ciudad Am caminando con amigos viendo chicas pasar, Bm y vos cruzaste justo y entonces quise hablarte Am pero mostraste tus dientes y me gruñiste, Bm porque soy diferente a lo que quiere tu papá, Am pero aceptame como soy,soy muy diferente a vos, Bm pero ¿qué vas hacer tán sola hoy?. Nena yo no quiero joderte solo quiero estar un rato más con vos. juro que no quiero comprometerte, ni quiero que tu novio sepa lo que hicimos hoy. Inter: Am-Bm x 4 Nena yo no quiero joderte... Final: Am-Bm x 8 Bm

Compartilhe esta música: novo

QR Code
Copiar