Tom: C
bueno ak les dejo la cancion de 638 de Viejas Locas 
ante cualkier duda o otra cancion q diga manden a [email protected] 

NOTAS UTILIZADAS:(Las notas en 5¨¬ ej:C5 son opcionales 
para q kede mejor o no pero en kso 
q no las usen hagan toda esa estrofa en C solo sin 5¨¬) 
C5 
G5 
D 
C 
G 

e|----------------------------------------------- 
B|----------------------------------------------- 
G|----------------------------------------------- 
D|8--8--8--10--8--5----8--8--8--10--8--5----8--8--8-- ¡æ 
A|8--8--8--10--8--5----8--8--8--10--8--5----8--8--8-- ¡æ 
E|6--6--6--8---6--3----6--6--6--8---6--3----6--6--6-- ¡æ 

D|10--10-10----8--8--8--10--10-10---8--8--8--10--8--- ¡æ 
A|10--10-10----8--8--8--10--10-10---8--8--8--10--8--- ¡æ 
E|-8---8--8----6--6--6--8---8--8----6--6--6--8---6--- ¡æ 

D|10---8---10---8-10--12--12--12--12--12--12-12--x-x-x-x-5| 
A|10---8---10---8-10--12--12--12--12--12--12-12--x-x-x-x-x| 
E|8----6---8----6-8---10--10--10--10--10--10-10--x-x-x-x-3| 
G G5 G Tenia tantas ganas de volverte a ver C C5 C y en mi casa me dicen que llamaste recien G G5 G trate de buscar tu numero en la guia C C5 C pero tu apellido nunca entendi bien D y empece C y empece G G5 G y empece a pensar que tenia en un cajon C C5 C un viejo cuaderno que guardabas vos G G5 G en el anotabas todo lo que hacias C C5 C y habia un corazon que decia: mi amor D C G llamame al 638-0465... Solo:
SOLO: 

e|----------------------------------------------------------- 
B|---------9------9------9------9------9--------------------- 
G|-10-8-10---8-10---8-10---8-10---8-10---8~--9-8-6-8-9-8-6--- 
D|---------------------------------------------------------8- 
A|----------------------------------------------------------- 
E|----------------------------------------------------------- 

e/---999-888-666-444-014-| 

e|---------------17-15-13-11-13-11-10-11-13-9-----------------------| 
B|-4-2-4-5-4-2------------------------------------------------------| 
G|------------------------------------------------8----8-9-8-------5| 
D|---------------------------------------------------11-------11-8--| 
A|------------------------------------------------------------------| 
E|------------------------------------------------------------------| 
A A5 A y agarre el telefono y me puse a marcar D D5 D tenia tantas ganas de volverte a hablar A A5 A y cuando atendieron por vos pregunte!! D D5 D y me dijeron que te fuiste hace mas de un mes E y pense D y pense A A5 A y pense que algun dia te voy a encontrar D D5 D y seguro que vamos a querer hablar A A5 A porque no vamos a dudar que hubo un gran amor D D5 D como me decia en ese corazon E D A llamame al 6380465...

Compartilhe esta música: novo

QR Code
Copiar