Aquela Velha Árvore

Victor Pradella

Tom: F
Capotraste na 5ª casa

E|------0--------------------------------------------------| 
A|---------------------------------------------------------| 
D|---------------------------------------------------------| 
G|---------------------------------------------------------| 
B|-------8--10---12-------------12--8--10--12--10--8-------| 
E|-----------------10---12--10-----------------------------| 
C9 Vem almoçar Ela o chamou pra dentro Am Já era quase A hora do café da tarde F9 G C9 Ele estava ali C9 Sentado a olhar Aquela bela velha árvore Am Do seu jardim Que lhe roubava a atenção F9 Am F9 Então não lhe restou escolha, a não ser F9 Am F9 G C9 Escrever uma canção de amor ( C9 Am F9 ) C9 Pediu então em oração Am Uma inspiração para Aquele F9 Que à todos dá de graça uma canção G C9 Ele sorriu C9 Cantarolar é o jeito que ele achou Am Para agradecer pelo seu lar E aquela velha árvore F9 Que está sempre ali Am Para lhe lembrar F9 De quanta vida ele encontrou ali G F9 C9 No seu jardim
E|---------------------------------------------| 
A|---------------------------------------------| 
D|---------------------------------------------| 
G|---------------------------------------------| 
B|-------12-----------12--8--10----------------| 
E|-------15--14-12-10-----------7--------------| 
Am F9 E ele escreveu uma canção de amor G C9 Naquela tarde Am F9 Para aquela que entregou seu coração

Compartilhe esta música: novo

QR Code
Copiar