Alegria

Victor Pradella

Tom: C
       C            G               Am 
E|------------------------------------------------| 
B|-------3\5/3----------------------1p0-----------| 
G|------0-------------0h2h4\5------2---2----------| {2x} 
D|-----2-------------0------------2-----2---------| 
A|--3---------------2------------0----------------| 
E|---------------3--------------------------------| 
Primeira parte: C G Que som é esse Am Que eu ouvi ao acordar C G Am Notei que ela já não está mais do meu lado C G Am Não demorou pra me cegar C G Am A luz do dia quando abriu a cortina pra cumprimentar o sol C D9 (Você pode também só Escorregar o C para a casa 3) E quando eu desci, ela já não estava G D9 Am Ela só se foi tem duas horas C G Am E parece a eternidade a esperar
Intro 

       C            G               Am 
E|------------------------------------------------| 
B|-------3\5/3----------------------1p0-----------| 
G|------0-------------0h2h4\5------2---2----------| {2x} 
D|-----2-------------0------------2-----2---------| 
A|--3---------------2------------0----------------| 
E|---------------3--------------------------------|
Segunda parte: C G Am Eu cansei de correr atrás do pote de ouro C G Am Que sabe lá Deus onde está C G Am Disseram que era besteira eu me casar C G Am Mal sabem eles que a graça do multiplicar tá no compartilhar C D9 E quando percebi ela já estava aqui
G Eu sorri D9 Am C D9 Quando eu vi a alegria chegar e entrar pela porta da frente G Eu sorri D9 Am Mal sabe ela a alegria que me traz C D9 E os sorrisos que ela pode me arrancar G D Am C D9 São todos dela, dela, bela? G Eu sorri D9 Am C D9 Quando eu vi a alegria chegar e entrar pela porta da frente G Eu sorri D9 Am Mal sabe ela a alegria que me traz C D9 E os sorrisos que ela pode me arrancar
Final: G D Am C D9 G São todos dela, dela, bela?

Compartilhe esta música: novo

QR Code
Copiar