Cidade De São Paulo

Verdecaffé

Tom: Em
Cidade de São Paulo 

Em Am7 C 

Em 
Pinte as paredes 
do seu quarto 
   Am7      C 
e abra a janela 
                Em 
para o vento entrar 
        Am7 C 
e completar 
             Em Am7 C 
O espaço vazio 
             Em Am7 C 
O espaço vazio 
Em 
Ande pela estrada 
ou vá voando 
            Am7  C 
com suas asas 
Em 
Posso sentir 
o domingo a tarde 
                    Am7  C 
com um pouco de saudade 

   Em 
E além disso 
a previsão do tempo 
                      Am7 
informa que está nublado 
                        C 
e a vida passa na cidade 

Refrão: 
(Em Am7 C) 
Na cidade de São Paulo 
na cidade de São paulo 
na cidade de São paulo 
na cidade de São paulo 

Riff Guitarra 2 

|--------------------------------------------| Repete até o fim do refrão. 
              x3 
E|-|-----------------|----------------------| 
B|-|--5/8-8-8-8-8-8--|--8/12-12-12-12-12-12-| 
G|-|--7/9-9-9-9-9-9--|--9/12-12-12-12-12-12-| 
D|-|-----------------|----------------------| 
A|-|-----------------|----------------------| 
E|-|-----------------|----------------------| 

Solo 

E|-|--------------------------------------------------------------------| 
B|-|--------------------------------------------------------------------| 
G|-|--------------------------------------------------------------------| 
D|-|--------------------5-7-7b8-5-7-5-----------------------------------| 
A|-|--5h7-7-7-5h7-7-7-5h7--------------5h7-7-7-5h7-7-7-5----------------| 
E|-|-----------------------------------------------------7\5-3-5b6-3-5--| 
Em Ande pela estrada ou vá voando Am7 C com suas asas Em Posso sentir o domingo a tarde Am7 C com um pouco de saudade Em E além disso a previsão do tempo Am7 informa que está nublado C e a vida passa na cidade Refrão
Riff Final 

E|-|------------------------------ 
B|-|------------------------------ 
G|-|-7/9--9/12-14-7--9/14-12-9---- 
D|-|------------------------------ 
A|-|-5/7--7/10-12-9--7/12-10-7---- 
E|-|------------------------------

Compartilhe esta música: novo

QR Code
Copiar