Carnaval

Ventre

Tom: E
E | ------------------------------------------------------------------------------------------------------------------------------ 
A | ------7------7--------------7------7------------5------5--------5-------5------------------------------------- 
D |--------------------------------------------------------------------------------------------------------------------------------- 
G |--------------------------------------------------------------------------------------------------------------------------------- 
B |----------8--------8-------------8-------8-----------6-------6-------6--------6--------------5------5------5------5------ 
E |---------------------------------------------------------------------------------------------------------------------------------- 


E | --------------------------------------------------------------------------------------------------------------------- 
A | ------------------------------------------------------------------------------------------------------------ 
D |-------------------------------------------------------------------------------------------------------------------------- 
G |--------------------------------------------------------------------------------------------------------------------------- 
B |-----------5--------5------------------5---------5----------------------------------------------------------------- 
E |------------------------------------------------------------------------------------------------------------------------------ 


E | ------------------------------------------------------------------------------------------------------------------------------ 
A | ------7------7--------------7------7------------5------5--------5-------5------------------------------------- 
D |--------------------------------------------------------------------------------------------------------------------------------- 
G |--------------------------------------------------------------------------------------------------------------------------------- 
B |----------8--------8-------------8-------8-----------6-------6-------6--------6--------------5------5------5------5------ 
E |---------------------------------------------------------------------------------------------------------------------------------- 


E | --------------------------------------------------------------------------------------------------------------------- 
A | ------------------------------------------------------------------------------------------------------------ 
D |-------------------------------------------------------------------------------------------------------------------------- 
G |--------------------------------------------------------------------------------------------------------------------------- 
B |-----------5--------5------------------5---------5----------------------------------------------------------------- 
E |------------------------------------------------------------------------------------------------------------------------------ 


E | ------------------------------------------------------------------------------------------------------------------------------ 
A | ------7------7--------------7------7------------8------8--------8-------8------------------------------------- 
D |--------------------------------------------------------------------------------------------------------------------------------- 
G |--------------------------------------------------------------------------------------------------------------------------------- 
B |----------8--------8-------------8-------8-----------10-------10-------10-------10--------------5------5------5------5-- 
E |---------------------------------------------------------------------------------------------------------------------------------- 


E | --------------------------------------------------------------------------------------------------------------------- 
A | ------------------------------------------------------------------------------------------------------------ 
D |-------------------------------------------------------------------------------------------------------------------------- 
G |--------------------------------------------------------------------------------------------------------------------------- 
B |-----------5--------5------------------5---------5----------------------------------------------------------------- 
E |------------------------------------------------------------------------------------------------------------------------------ 
Am7 Dm C5 Em Perdi o prazo e o que era acaso Am7 Dm C5 Em Passei do ponto de quando era só, indo Am7 Dm C5 Em Am7 E foi-se o tempo em que a vida dava Dm C5 Em Am7 Dm Tudo de bom e nada cobrava C5 Em Am7 Dm C5 Em Agora eu corro por mim D C E D C E D Arrumei um problema de tempo que a vida trouxe C E D C E D E a pressa de todas as coisas na minha cabeça
E | --------------------------------------------------------------------------------------------------------------------------------- 
A | ----5------5----5-----------5-----------2----------------2/5------5----5-----------5-----------2---------------- 
D |------------------------------------------------------------------------------------------------------------------------------- 
G |-------------------------------------------------------------------------------------------------------------------------------- 
B |--------7-------------7----------------5-------------4-----------------7-------------7----------------5-------------4------- 
E |---------------------------------------------------------------------------------------------------------------------------------- 
(Am7 Dm C5 Em) Venci o medo, juntei os pedaços Passei por cima de todos os cacos E lá, vi como era bem diferente Vi como é bom lutar pela gente Agora eu corro por nós (D C E) Arranjei um espaço no tempo pra que coubesse Livros, cartas, discos e beijos (e um violão)
E | -------------------------------- 
A | ----5----------------------- 
D |-------------------------------- 
G |----------------------7b9----- 
B |-----------------------5-------- 
E |--------------------------------- 

E | -------------------------------------------| 
A | ----5----------5-------------------------| 
D |--------------------------5---------------|	Riff 1 
G |--------------------------------------------| 
B |--------------------------------------------| 
E |--------------------------------------------| 
Riff 1 Só nós, passear pela praça de noite F Tomar uma cerveja no bar Dm Puxar uma cadeira pra vida F Tomar uma cerveja no bar Dm Deixar tudo pra lá que vem vindo F Tomar uma cerveja no bar Dm Puxar uma cadeira pra vida F Tomar uma cerveja no bar Dm Deixar tudo pra lá que vem vindo (E D C) Nosso carnaval vai chegar... E essa fase ruim vai passar...

Compartilhe esta música: novo

QR Code
Copiar