Sunday Bloody SundayCifra Verificada

U2

Tom: Bm

Bm=X,X,X,4,3,2 D=X,X,X,2,3,2 G6=X,X,X,0,3,0 G=X,10,12,12,12,X
Tuning: Eb Ab Db Gb Bb eb
Intro: Bm D G6 

e|-------2-----------2-----------0-------------0-----| 
B|----3-----3-----3-----3-----3-----3------3-------3-| 
G|-4-----------2-----------0-----------0-------------| 
D|---------------------------------------------------| 
A|---------------------------------------------------| 
E|---------------------------------------------------| (3x) 
Bm D G6 I can't believe the news today Bm D G6 I can't close my eyes and make it go away D Em How long how long must we sing this song D Em How long, how long B5 D5 Tonight G B5 D5 G We can be as one tonight Bm D G6 Broken bottles under children's feet Bm D G6 Bodies strewn across a dead end street Bm D G6 But I won't heed the battle call Bm D G6 It puts my back up puts my back up against the wall D Em How long, how long B5 D5 Tonight G B5 D5 G We can be as one tonight
Bm D G Sunday bloody sunday Bm D G Sunday bloody sunday F Em D F Em D F Em D Sunday bloody sunday
Riff 3 

e|--------------------------------| 
B|------------------------7ha-----| 
G|-----7ha--------5ha---------7ha-| 
D|-7ha--------5ha-----------------| 
A|--------------------------------| 
E|--------------------------------| 
Bm D G And the battle's just begun Bm D G Theres many lost but tell me who has won? Bm D G The trenches dug within our hearts Bm D G And mothers children, brothers sisters torn apart D Em How long, how long B5 D5 Tonight G B5 D5 G We can be as one tonight
Bm D G Sunday bloody sunday Bm D G Sunday bloody sunday F Em D F Em D F Em D Sunday bloody sunday
Solo: 

e|-12-12-12-10-10--10--12-12-12-10-10--10----------------------| 
B|-0--0--0--0--0---0---0--0--0--0--0---0---12-12-12-10-10--10--| 
G|-----------------------------------------0--0--0--0--0---0---| 
D|-------------------------------------------------------------| 
A|-------------------------------------------------------------| 
E|-------------------------------------------------------------| 

e|--------------------| 
B|-12-12-12-10-10--10-| 
G|-0--0--0--0--0---0--| 
D|--------------------| 
A|--------------------| 
E|--------------------| 

e|-12-12-12-10-10--10--12-12-12-10-10--10----------------------| 
B|-0--0--0--0--0---0---0--0--0--0--0---0---12-12-12-10-10--10--| 
G|-----------------------------------------0--0--0--0--0---0---| 
D|-------------------------------------------------------------| 
A|-------------------------------------------------------------| 
E|-------------------------------------------------------------| 

e|--------------------| 
B|-12-12-12-10-10--10-| 
G|-0--0--0--0--0---0--| 
D|--------------------| 
A|--------------------| 
E|--------------------| 

e|-------------------------------------------------| 
B|-10-10-10-8-8-8-7-7-5-5-3-3h5-3-3-2h3-2-0--0-0-0-| 
G|-0--0--0--0-0-0-0-0-0-0-0-----0-0-0---0-0--0-0-0-| 
D|-------------------------------------------------| 
A|-------------------------------------------------| 
E|-------------------------------------------------| 

e|-0-0-0-0-0-0-0-0-0-0--0--0--0--0--0--0--0--0--0--| 
B|-3-5-3-5-5-7-7-8-8-10-10-12-12-15-15-14-10-12-12-| 
G|-------------------------------------------------| 
D|-------------------------------------------------| 
A|-------------------------------------------------| 
E|-------------------------------------------------| 

Bm D G And it's true we are immune Bm D G When fact is fiction and TV is reality Bm D G And today the millions cry Bm D G We eat and drink while tomorrow they die

Compartilhe esta música: novo

QR Code
Copiar