Stuck In A Moment (Can't Get Out Of It)

U2

Tom: E
Intro And Verse: Drums First 

E   (E)   A   E  
B   C#m   A   E 

Then The Edge Play This: 

   E       A        B  C#m      A  E 
E|-0---0---0---0--|-2-----------5--7--| 
B|-0---0---2---0--|-4------5----5--9--| 
G|-1---1---2---1--|-4--4/6---6--6--9--| 
D|-2---2---2---2--|-4-----------7--9--| 
A|-2---2---0---2--|-2-----------7--7--| 
e|-0---0-------0--|-------------5-----| 
Intro Twice. Verse: E (E) I'm not afraid A E Of anything in this world B C#m There's nothing you can throw at me A E That I haven't already heard E (E) I'm just trying to find A E A decent melody B C#m A song the I can sing A E In my own company
Pre-Chorus: Riff 1 C#m A I never thought you were a fool Riff 2 F# A But darling, look at you Riff 1 C#m A C#m You gotta stand up straight, carry your own weight B These tears are going nowhere baby
E A E You got to get yourself together B C#m A E You've stuck in a moment and now you can't get out if it E A E B C#m Don't say that later will be better now you're stuck in a moment A E And you can't get out of it
In the live version The Edge do something like this: 

   E 
E|--0--0--0-------------------| 
B|------------0---------------| 
G|-1--1--1--1----1h2h1-2-1----| 
D|-------------------------2--| 
A|----------------------------| 
e|----------------------------| 
Verse: E (E) I will no forsake A E The colors that you bring B C#m But the night you filled with fireworks A E They left you with nothing E (E) I am still enchanted By the light you brought to me B C#m I still listen throught you ears A E And throught your eyes I can see
Pre-Chorus: Riff 1 C#m A And you are such a fool Riff 2 F# A To worry like you do Riff 1 C#m A I know it's tough C#m And you can never get enough B Of what you don't really need now....my oh my
E A E You got to get yourself together B C#m You've stuck in a moment A E And now you can't get out if it E A E Oh love, look at your now G# C#m You have yourself stuck in a moment A E and you can't get out of it
Pre-Chorus: F#m I was inconscious, half asleep A E The water was warm until you discover how deep.... F#m I wasn't jumping....for me it was a fall A D B It's long way down to nothing at all
E A E You got to get yourself together B C#m You've stuck in a moment A E And now you can't get out if it E A E Oh love, look at your now G# C#m You have yourself stuck in a moment A E and you can't get out of it
The Edge Singing: E A E And if the night runs over B C#m A E And if the day won't last E A E And if our way should falter B C#m A E Along the stony pass The Edge And Bono Singing Together: E A E And if the night runs over B C#m A E And if the day won't last E A E And if our way should falter B C#m A E Along the stony pass End: E It's just a moment A E This time will pass Riff 1: There are piano and guitar on this tab:
Guitar Tab:           Piano Tab: 

 Bbm C#m               A  
E|-1/4-4----4----4---|--5--5-----| 
B|-2/5--5----5----5--|---5--5----| 
G|-3/6---6----6----6-|-6------6--| 
D|-3/6---------------|-----------| 
A|-------------------|-----------| 
e|-------------------|-----------| 

And Only the piano here: 

Riff 2: 

  A 
E|--5--5-----| 
B|---5--5----| 
G|-6------6--| 
D|-----------| 
A|-----------| 
e|-----------| 
[email protected]

Compartilhe esta música: novo

QR Code
Copiar