All I want is you (live)

U2

Tom: A
 
Afinação: meio tom abaixo 
 
Tom: A 
 
Intro: A - D - A - D 
 
riffs: 
 
(riff 1) 
       A           D 
E|------------|--------------| 
B|-----2---2--|-----3---3----| 
G|---2---2---2|---2---2---2--| 
D|------------|-0------------| 
A|-0----------|--------------| 
E|------------|--------------| 
 
(riff 2) 
 
      F#m 
E|-------2------|-------2------| 
B|---------2----|-----3----3---| 
G|-----------2--|---2--------2-| 
D|-----4--------|-0------------| 
A|---4----------|--------------| 
E|-2------------|--------------| 
 
 
(riff 3) 
 
        A 
E|-0-0-0-0-0-0--|-2-2-0-0-2--| 
B|-2-2-0-2-0-2--|-3-3-3-3-3--| 
G|-2-2-2-2-2-2--|-2-2-2-2-2--| 
D|-2-2-2-2-2-2--|-0-0-0-0-0--| 
A|-0-0-0-0-0-0--|------------| 
E|--------------|------------| 
 
____________________________________________ 
(riff 1) ou A D A D You say you want a diamond ring of gold A D A D You say you want your story to remain untold (riff 2) ou F#m D All the promises we made F#m D From the cradle to the grave A D (riff 3) A D A D When all I want is you **Agora começam as batidas** (você pode continuar também a usar os riffs em vez dos acordes, que é o que o The Edge faz no DVD) A D A D You say you'll give me a highway with no one on it A D A D Treasure just to look upon it all the riches in the night A D A D You say you'll give me eyes on a moon of blindness A D A D A river in a time of dryness a harbour in the tempest F#m D All the promises we make F#m D From the cradle to the grave A D A (riff 3) D A D (A - D - A - D) When all I want is you A D A D You say you want you love to work out right A D To last with me through the night A D A D You say you want a diamond ring of gold A D A D Your story to remain untold your love not to grow cold F#m D All the promises we break F#m D From the cradle to the grave A D A (riff 3) D A D A D A D When all I want is you (A D) All I want is you _______________________________________________________ Contribuição: Ricardo Carvalho([email protected])

Compartilhe esta música: novo

QR Code
Copiar