Camisa 10Cifra Verificada

Turma Do Pagode

Tom: Cm
Intro: 

d|--------------------|--8-----4--| 
B|--2--4--4--2--4--4--|--5-----2--| 
G|--------------------|--5-----4--| 
D|--------------------|--5-----6--| 
                         B7M   G#m(11) 

d|-----------------------------------------4-----4--6--| 
B|---------------4--5--4----------------------4--------| 
G|------------------------6----------------------------| 
D|---4--6--4--6--------------4--6--4--6----------------| 

d|--------------------------------------4------------| 
B|----------------4--5--4------------------4---------| 
G|-------------------------6--6------4--------4--6---| 
D|---4--6--4--6-----------------6------------------4-| 

C#m7 Se um dia eu disser E/F# Que não te amo é que eu te amo B7M B6 B7M G#m7(11) Ainda mais, pode acreditar C#m7 Se um dia eu disser E/F# Que não te quero é que eu te quero B7M B6 B7M B7(13) O dobro ou mais, tenta imaginar E9 Não sei mentir A#m(b5) G#m Meus olhos dizem mais que minha boca G#m G#m7+ G#m7 Eu vejo que não tem saída G#m6 Esse teu jeito meio louca E9 Me faz...........feliz E/F# B7+ A/B Amor que vai durar pra toda vida E9 E/F# Eu não me separo de você mulher D#m7 G#m7 Nem se a Globeleza um dia me quiser C#m7 Se na mega sena eu vencer F#7sus4 G#7sus4 G#7 Fico com você, fico com você E9 E/F# Se no Barcelona eu for camisa 10 D#m7 G#m7 Me cobrir de ouro da cabeça aos pés C#m7 Mesmo assim se isso acontecer E/F# G#7sus4 G#7 Fico com você fico com você.
SOlo: 

d|--------6--4--------------------4--4------| 
B|-----5--------5--4--------4---------------| 
G|--6-----------------6--4-----6------------| 
D|----------------------------------------4-| 

Final: 

d|-----------------------------| 
B|-----------------------------| 
G|----4--6------4--6-----6--4--| 
D|-6---------6--------6--------| 

Compartilhe esta música: novo

QR Code
Copiar