We Were Children

Tribes

Tom: B
Intro : B F# E Eb x2 

e|-------------------------|--------------------------| 
B|-------------------------|--------------------------| 
G|-------4-----------3-----|-----0-----0-----1-----1--|    x 2 
D|----4-----4-----4-----4--|--1-----1-----2-----2-----| 
A|-2-----------2-----------|--------------------------| 
E|-------------------------|--------------------------| 

B F# It was a day like today, Abm E a sunday afternoon when they took you away B F# Eb down to Hades in a shopping trolley E with a magazine and a suitcase B F# They stole your clothes Abm i took your watch E i couldnt look you in the eye B F# E E why its always those who you love the most you criticise
B F# Abm E Oh no stranger your just like me, B F# Abm E these things happen we were children in the mid 90's B F# Abm E Oh no stranger your just like me, B F# Abm E we get older they get younger it was you or me
Interlude: B F# E Eb x2 

e|-------------------------|--------------------------| 
B|-------------------------|--------------------------| 
G|-------4-----------3-----|-----0-----0-----1-----1--| 
D|----4-----4-----4-----4--|--1-----1-----2-----2-----| 
A|-2-----------2-----------|--------------------------| 
E|-------------------------|--------------------------| 

e|-------------------------|--------------------x--x--| 
B|-------------------------|--------------------x--x--| 
G|-------4-----------3-----|-----0-----0-----1--x--x--| 
D|----4-----4-----4-----4--|--1-----1-----2-----x--x--| 
A|-2-----------2-----------|--------------------x--x--| 
E|-------------------------|--------------------------| 
verse 2 B F# Abm E We stood there throwing ice cream in your hair how i solemly swear B F# Eb (6th) E (7th) its the thing in life i regret the most... leaving you standing there B F# Abm And if you asked me id pull my eyes out E and when i woke up blind B F# Eb (6th) if you forgave i would sleep at night E (7th) knowing i'd led a good life.
B F# Abm E Oh no stranger your just like me, B F# Abm E these things happen we were children in the mid 90's B F# Abm E Oh no stranger your just like me, B F# Abm E we get older they get younger it was you or me
Solo B F# E Eb x4 

e|--2-----2-----0-----0--------------------------| 
B|----0-----0-----0-----0--2-----2-----2---------| 
G|-----------------------------4-----4-----4--4--|  x 2 
D|-----------------------------------------------| 
A|-----------------------------------------------| 
E|-----------------------------------------------| 


e|-14------14------12------12-------------------------| 
B|-----12------12------12------12--14------14---------| 
G|-------------------------------------16------16--16-|   x 2 
D|----------------------------------------------------| 
A|----------------------------------------------------| 
E|----------------------------------------------------| 

Play both chords once B F# Learning how to keep living
B F# Abm E Oh no stranger your just like me, B F# Abm E these things happen we were children in the mid 90's B F# Abm E Oh no stranger your just like me, B F# Abm E we get older they get younger it was you or me B F# Abm E Oh no stranger your just like me, B F# Abm E these things happen we were children in the mid 90's B F# Abm E Oh no stranger your just like me, B F# Abm E we get older they get younger it was you or me
End on B

Compartilhe esta música: novo

QR Code
Copiar