Halfway Home

Tribes

Tom: F
Intro: F 


Verse 1: 

   C            Bb    Dm             C 
An awakening of self, wrapped up and ready to go. 

F          Bb             Dm          C 
Just wanna dance with you but I won't let it show. 

       C               Bb    Dm                 C 
Do you remember how we were? Late nights on the trampoline. 

F          Bb              Dm             C 
Just wanna dance with you, this time it's plain to see. 


Bridge: 

F     C     F   C   Bb 
Ooooh ooooh ooh-ooh-ooh 

F     C     F   C   Bb  F 
Ooooh ooooh ooh-ooh-ooh 


Verse 2: 

     C                  Bb     Dm              C 
Stay awake to watch you sleep. I'm young but I don't feel well. 

F          Bb            Dm          C 
I'm not in love with you but i won't let you tell. 

             C                  Bb      Dm            C 
If you could list your favorite things. Fast food and magazines. 

F          Bb             Dm             C 
I'm not in love with you, this time it's plain to see. 


Bridge: 

F     C     F   C   Bb 
Ooooh ooooh ooh-ooh-ooh 
                                   
F     C     F   C   Bb  F 
Ooooh ooooh ooh-ooh-ooh (2x)


(If you want the little guitar lick that descends into the chorus) : 

e|---------------------------------------------------------------------------| 
B|---------------------------------------------------------------------------| 
G|--10-9--7------------------------------------------------------------------| 
D|-----------10-8--7--3~-----------------------------------------------------| 
A|--8--7--5------------------------------------------------------------------| 
E|-----------8--6--5--1~-----------------------------------------------------| 

F C Bb C F Well I'm saving up my time, for use on someone else. C Bb C F Not much left here anyway...I blame that on myself. C Bb C F But I wouldn't change a thing, I'm better off alone. C Bb C F When you wake up here tomorrow, I'll be half way home.
Solo: 

e|---------------------------------------------------------------------------| 
B|---------------------------------------------------------------------------| 
G|---------------------------------------------------------------------------| 
D|--8p7-8p7-7h8p7-8s10~-------8p7-8p7-7h8p7----------------------------------| 
A|------------------------------------------10-8~----------------------------| 
E|---------------------------------------------------------------------------| 

Chorus

Compartilhe esta música: novo

QR Code
Copiar