Um Dia Mais Não Hoje

Treze Cidades

Tom: Dm
Intro: Dm7 Cm D4 Bb 

Solo Intro: 
 
E|-4-4----4----3-3----3----3-3----3----1-1----1--| 
B|-6---6----6--4---4----4--4---4----4--3---3---3-| 
G|-5-----5-----5-----5-----3-----3-----3-----3---| 
D|-----------------------------------------------| 
A|-----------------------------------------------| 
E|-----------------------------------------------| 
Dm7 Hoje não estava nada bem Cm Lembrei de você e a lagrima escorreu D4 A noite é que a tristeza vem Bb Eu ainda não sei o que aconteceu Dm7 Tento esquecer você desde aquele dia Cm As outras pessoas não tem o seu brilho D4 Vou aos poucos concertando minha vida Bb Não me resta mais nada comigo Dm7 Você ainda está nos meus pensamentos Cm Estou morrendo e ninguém percebeu D4 Um dia vai acabar esse sofrimento Bb Meu coração sempre será seu Riff:
 
E|------------------------------------------------------------------| 
B|-6---6---6---6---4---4---4---4---4---4---4---4---3---3---3---3----| 
G|---5---5---5---5---5---5---5---5---3---3---3---3---3---3---3---3--| 
D|------------------------------------------------------------------| 
A|------------------------------------------------------------------| 
E|------------------------------------------------------------------| 
Um dia eu vou voltar Um dia você vai me amar Talvez um dia Um dia mais não hoje Dm7 Até o final da minha vida Cm Eu vou estar te esperando D4 Seja hoje na volta ou amanha na ida Bb Meu coração está te aguardando Riff:
 
E|------------------------------------------------------------------| 
B|-6---6---6---6---4---4---4---4---4---4---4---4---3---3---3---3----| 
G|---5---5---5---5---5---5---5---5---3---3---3---3---3---3---3---3--| 
D|------------------------------------------------------------------| 
A|------------------------------------------------------------------| 
E|------------------------------------------------------------------| 
Um dia eu vou voltar Um dia você vai me amar Talvez um dia Um dia mais não hoje

Compartilhe esta música: novo

QR Code
Copiar