Sonhos E Desafios

Treze Cidades

Tom: C
Solo Intro: 
 
E|------------------------------------| 
B|------------------------------------| 
G|------------------------------------| 
D|-2-2-2-2--3-3-3-3--2-2-2-2--0-0-0-0-| 
A|-3-3-3-3--3-3-3-3--3-3-3-3--3-3-3-3-| 
E|------------------------------------| 
C Não desista dos seus sonhos F Eles são o que te faz viver C As pessoas derrotadas G Falam que você vai perder C Os sonhos nem sempre se realizam F A falta de fé o motivo C Mas mantenha o seu sonho vivo G Sonhando você entra no paraíso Riff:
 
E|----------------------------------------------------| 
B|----------------------------------------------------| 
G|----------------------------------------------------| 
D|-14-14-14-14--15-15-15-15--14-14-14-14--12-12-12-12-| 
A|-15-15-15-15--15-15-15-15--15-15-15-15--15-15-15-15-| 
E|----------------------------------------------------| 
C5 Não existe sonho impossível F5 Tudo pode acontecer C5 Quando menos se espera G5 Ele vem te surpreender Riff:
 
E|----------------------------------------------------------------| 
B|-----1------1-------1-------1-------1-------1-------3-------3---| 
G|-------0------0-------2-------2-------0-------0-------0-------0-| 
D|---2-------2------3-------3-------2-------2-------0-------0-----| 
A|-3-------3------3-------3-------3-------3-------3-------3-------| 
E|----------------------------------------------------------------| 
Eu sonho toda noite Em um dia poder vencer Espero o tempo que for Vem correndo me ver C Sobre os meus sonhos F Prefiro não ouvir conselhos C A maioria das pessoas assim G De tanto tentar ficaram velhos C É tentando que se consegue F Mas o mundo me iludiu C Achei que seria mais fácil G A morte olhou para mim e sorriu Riff:
 
E|----------------------------------------------------------------| 
B|-----1------1-------1-------1-------1-------1-------3-------3---| 
G|-------0------0-------2-------2-------0-------0-------0-------0-| 
D|---2-------2------3-------3-------2-------2-------0-------0-----| 
A|-3-------3------3-------3-------3-------3-------3-------3-------| 
E|----------------------------------------------------------------| 
Eu sonho toda noite Em um dia poder vencer Espero o tempo que for Vem correndo me ver Solo Final:
 
E|--------------------------------------| 
B|--------------------------------------| 
G|--------------------------------------| 
D|----14-15b17-14-12-----14-15b17r15-14-| 
A|-15-----------------15----------------| 
E|--------------------------------------|

Compartilhe esta música: novo

QR Code
Copiar