Monochrome Rainbow

Tommy Heavenly6

Tom: G
Intro base: C B E G  x2 



E|-----------------------------------------------| 
B|-----------------------------------------------| 
G|----12/14---11---12--7---9---11----------------| x2 
D|-----x-/x-----x----x----x---x---x--------------| 
A|----10/12---9----10---5---7---9----------------| 
E|-----------------------------------------------|
C B E G Kurikaesu nibuku detarame na sekai C B E G Urusakute mimi wo fusaida C B E G Nan no tame ni kizutsukeatteiru no ? C B Can you hear my heartbeat E G Baby i trust you my friend C B Zetsubou ni fushita kokoro no sumi C Orikasanaru mujun no kage ni Mune wo itamenagara B D Ashita wo yume mireru no ? G B Toori ame no ato ni mitsuketa niji wo omotte E C D Me wo tojiru fly with me donna nagai yume mo G Iroasenai kimi to nara B E Egakidaseru kienai niji mo C D Deaeta ano hi ni mita tsukiakari de sae mo Utsushidasu nando demo nando demo C B E G C Sensai ni hibiku oto no nai sekai B E G Nakigao no piero ga warau C B E G Ochita hoshi ni nani wo negaeba ii no ? C B E G Kudaranai zenbu kiniiranai C Atama no naka iki wo hisome B Nigeru boku wo osaekonda C Machigaenai ikikata nado B D Dare ga oshiete kureta ? G B Sono yume wa mihatenu eikou no you ni mieta E C D Usureteyuku kakushin ni obienagara G Tsukameru mono wo motomete B E Yasuragi sae tatte kita no wa C Akirame janakute D Yume wo koeru tame A G D Yakusoku no basho e Kimi wo tsureteyuku A G I'll take you to my world D I'll show you my sweet eternal dreams Solo Base: G B E C D Solo
E|---------------------------------------------------------------------------------------------------------| 
B|----20----19----17---15---15---13----12----20----19----17---16---16---17---19---------------------------| 
G|16----16----16-----------------------16----16------------------------------------------------------------| 
D|---------------------------------------------------------------------------------------------------------| 
A|---------------------------------------------------------------------------------------------------------| 
E|---------------------------------------------------------------------------------------------------------|
E|-----------------------------------------------------------------------------------------------------------------------| 
B|----20----19----17---15---15---13---12-----13---13---16---13---16---15---13---12---13---12--------------------------| 
G|16---16-----16---------------------------------------------------------------------------------------------------------| 
D|-----------------------------------------------------------------------------------------------------------------------| 
A|-----------------------------------------------------------------------------------------------------------------------| 
E|-----------------------------------------------------------------------------------------------------------------------|
G B Toori ame no ato ni mitsuketa niji wo omotte E Yume wo miru fly with me C D Donna kurai sora mo G kagayakaseru kimi to nara B E Monokuro-mu na niji wo koete C D C B Kienai keshiki wo sekai wo kimi no hitomi ni E G C B E G C Utsushidasu nando demo nando demo

Compartilhe esta música: novo

QR Code
Copiar