(dawning Of A) New Era

The Specials

Tom: A
Intro 

E|----------------------------------------| 
B|----------------------------------------| 
G|----------------------------------------| 
D|----------------------------------------| 
A|------------------------------------3--1| 
E|---1h2--2--2--1h2--2--2--1h2--2--2------| 

E|----------------------------------------| 
B|----------------------------------------| 
G|----------------------------------------| 
D|----------------------------------------| 
A|----------------------------------------| 
E|---1h2--2--2--1h2--2--2--1h2--2--2--2--0| 

E|----------------------------------------| 
B|----------------------------------------| 
G|----------------------------------------| 
D|----------------------------------------| 
A|------------------------------------3--1| 
E|---1h2--2--2--1h2--2--2--1h2--2--2------| 

E|-------------------------7--7--7--7-----| 
B|-------------------------7--7--7--7-----| 
G|-------------------------9--9--9--9-----| 
D|-------------------------9--9--9--9-----| 
A|-------------------------7--7--7--7-----| 
E|---1h2--2--2--1h2--2--2-----------------| 

Verso 1:

A F#m This is the dawning... of a neeew era A F#m This is the dawning... of a neeew era D5 E5 I met a girl from area three D5 E5 She told me that she worked in a chicken factory A F#m This is the dawning... of a neeew era D5 E5 By two o'clock we were Brahms & Liszt D5 E5 Had to walk her home through area six A F#m This is the dawning... of a neeew era D5 E5 Sticks and stones may break my bones D5 E5 In area six they throw bottles and bricks and... kicks
Solo 

E|---5--5--5--5---2--2--2--2-----| 
B|---5--5--5--5---2--2--2--2-----| 
G|---6--6--6--6---2--2--2--2-----| 
D|---7--7--7--7---4--4--4--4-----| 
A|---7--7--7--7---4--4--4--4-----| 
E|---5--5--5--5---2--2--2--2-----| 

E|---5--5--5--5---2--2--2--2-----| 
B|---5--5--5--5---2--2--2--2-----| 
G|---6--6--6--6---2--2--2--2-----| 
D|---7--7--7--7---4--4--4--4-----| 
A|---7--7--7--7---4--4--4--4-----| 
E|---5--5--5--5---2--2--2--2-----| 

E|---5--5--5--5---2--2--2--2-----| 
B|---5--5--5--5---2--2--2--2-----| 
G|---6--6--6--6---2--2--2--2-----| 
D|---7--7--7--7---4--4--4--4-----| 
A|---7--7--7--7---4--4--4--4-----| 
E|---5--5--5--5---2--2--2--2-----| 

E|---5--5--5--5---2--2--2--2-----| 
B|---5--5--5--5---2--2--2--2-----| 
G|---6--6--6--6---2--2--2--2-----| 
D|---7--7--7--7---4--4--4--4-----| 
A|---7--7--7--7---4--4--4--4-----| 
E|---5--5--5--5---2--2--2--2-----| 

Guitarra Solo 

E|---8-7-5----11b----------------| 
B|---------7~--------------------| 
G|------------------6-4-2--------| 
D|------------------------4~-----| 
A|-------------------------------| 
E|-------------------------------| 

E|---8-7-5----11b----------------| 
B|---------7~--------------------| 
G|------------------6-4-2--------| 
D|------------------------4~-----| 
A|-------------------------------| 
E|-------------------------------| 

Verso 2:

A F#m This is the dawning... of a neeew era D5 E5 I climbed the stairs to the fourteenth floor D5 E5 The key won't fit the door A F#m This is the dawning... of a neeew era D5 E5 She said she had a beautiful flat D5 E5 We had to sleep on the mat A F#m This is the dawning... of a neeew era D5 E5 Woke up and thought 'This ain't exactly heaven' D5 E5 Oh shit, this is area seven A F#m This is the dawning... of a neeew era A F#m This is the dawning... of a neeew era A F#m This is the dawning... of a neeew era A This is so boring It's a new era, era, era, era

Compartilhe esta música: novo

QR Code
Copiar