Cherry Bomb

The Runaways

Tom: B
Intro: B5 

B5                                     D5 
Can't stay at home, can't stay at school 
B5                               D5 
Old folks say, ya poor little fool 
B5                                    D5 
Down the street I'm the girl next door 
B5 
I'm the fox you've been waiting for 

 F#5          A5 
Hello Daddy, hello Mom 
         B5           E5  B5        E5 
I'm your ch ch ch ch ch cherry bomb 
 F#5                  A5 
Hello world I'm your wild girl 
         B5          E5   B5        E5 
I'm your ch ch ch ch ch cherry bomb 

 B5                                    D5 
Stone age love and strange sounds too 
 B5                              D5 
Come on baby let me get to you 
 B5                              D5 
Bad nights cause'n teenage blues 
 B5 
Get down ladies you've got nothing to lose 

 F#5          A5 
Hello Daddy, hello Mom 
         B5           E5  B5        E5 
I'm your ch ch ch ch ch cherry bomb 
 F#5                  A5 
Hello world I'm your wild girl 
         B5          E5   B5        E5 
I'm your ch ch ch ch ch cherry bomb 

Solo Base: B5  D5 (3x)    B5 

Solo Riff: 
E|---12-12^-------------------------------------------------------------------------------------------- 
B|------------12--15--12------12------12--------------------------------------------------------------- 
G|------------------------14------14----------------9---11^---9---11------9---------------------------- 
D|------------------------------------------9---12----------------------------12---9------12--9-------- 
A|-------------------------------------------------------------------------------------12--------12--9- 
E|----------------------------------------------------------------------------------------------------- 

E|----------------------------------------------------------------------------------------------------- 
B|---12------------12--------------12----15^---12----15---12-------------------12---------------------- 
G|-------11---14----------11---14------------------------------14----11---14--------------------------- 
D|----------------------------------------------------------------------------------------------------- 
A|----------------------------------------------------------------------------------------------------- 
E|----------------------------------------------------------------------------------------------------- 
F#5 A5 Hello Daddy, hello Mom B5 E5 B5 E5 I'm your ch ch ch ch ch cherry bomb F#5 A5 Hello world I'm your wild girl B5 E5 B5 E5 I'm your ch ch ch ch ch cherry bomb C#m5 C#m5 E5 Hey street boy whats your style C#m5 E5 Your dead end dreams don't make you smile C#m5 E5 I'll give ya something to live for C#m5 Have ya, grab ya til your sore G#5 B5 Hello Daddy, hello Mom C#m5 E5 C#m5 E5 I'm your ch ch ch ch ch cherry bomb G#5 B5 Hello world I'm your wild girl C#m5 E5 C#m5 E5 I'm your ch ch ch ch ch cherry bomb C#m5 E5 Cherry Bomb (4x) C#m5 Cherry Bomb (Deixa soar)

Compartilhe esta música: novo

QR Code
Copiar