Satisfaction

The Rolling Stones

Tom: E
Intro  



e|--------------------------------------------------------------------|  
B|--------------------------------------------------------------------|  
G|--------------------------------------------------------------------|  
D|--------------------------------------------------------------------|  
A|--2-2---2-4-5---5-5\4-4p2--(3x)------2-2---2-4-5---5-5\4-4p2--2-----|  
E|--------------------------------------------------------------------|  



 verse 1  



e|--------------------------------------------------------------------|  
B|--------------------------------------------------------------------|  
G|--------------------------------------------------------------------|  
D|--------------------------------------------9-9-7-9---9-----9-------|  
A|---7---------7-----7---------7-----7-----7--7-7-7-7-7-7-7-7-7-7-7---|  
E|-9---9\7-5---5-5-5-5-5-5-5-5-5-5-5---7/9----------------------------|  




e|--------------------------------------------------------------------|  
B|--------------------------------------------------------------------|  
G|--------------------------------------------------------------------|  
D|--------------------------------------------9---7-9---9-------------|  
A|---7--------7-----7---------7-----7-----7-7-7-7-7-7-x-7---------7---|  
E|-9---9\7-5--5-5-5-5-5-5-5-5-5-5-5-5-5-5-----------------7-7-7h9-----|  




e|--------------------------------------------------------------------|  
B|--------------------------------------------------------------------|  
G|--------------------------------------------------------------------|  
D|-----------------9---7-9--------------------------------------------|  
A|-7h9p7---7-9-7-7-7-7-7-7-x-------7-----7---7------------------------|  
E|-------9-------------------0-5-5-5-5-5-5-5-5------------------------|  




Chorus 1,2 e 3  




e|--------------------------------------------------------------------|  
B|--------------------------------------------------------------------|  
G|--------------------------------------------------------------------|  
D|--------------------------------------------------------------------|  
A|-2-2---2-4-5---5-5\4-4p2-(8x)--2-2---2-4-5---5-5\4-4p2--(2x)--2-----|  
E|--------------------------------------------------------------------|  




 verse 2  




e|--------------------------------------------------------------------|  
B|--------------------------------------------------------------------|  
G|-----------------------------------------------9-7-9---------9-7-9--|  
D|--------------------------------------9--------9-7-9---------9-7-9--|  
A|---7--------7-----7---7-----7----9/11---11-9-7-------7-7-7-7--------|  
E|-9---9\7-5--5-5-5-5-5-5-5-5-5-5-------------------------------------|  





e|--------------------------------------------------------------------|  
B|--------------------------------------------------------------------|  
G|--------------------------------------------------------------------|  
D|-----------------------------------------9---7-9--------------------|  
A|-7-7-----7-----7---7-----7-------7---7-7-7-7-7-9---------7-7h9p7----|  
E|-----5-5-5-5-5-5-5-5-5-5-5-5-5-5-5-5-------------7-7-7h9---------9--|  




e|--------------------------------------------------------------------|  
B|--------------------------------------------------------------------|  
G|--------------------------------------------------------------------|  
D|---------9-7-9------------------------------------------------------|  
A|-7-9-7-7-7-7-7---------7-7h9p7---7----------------------------------|  
E|---------------5-5-7/9---------9------------------------------------|  




 verse 3  




e|--------------------------------------------------------------------|  
B|--------------------------------------------------------------------|  
G|--------------------------------------7-7--7------------------------|  
D|------------------------------------9-------------------------------|  
A|--------7-----7---7-----7-------7---7----------7--------------------|  
E|-9\7-5--5-5-5-5-5-5-5-5-5-5-5-5-5-5----------9---9\7-5--------------|  




e|--------------------------------------------------------------------|  
B|--------------------------------------------------------------------|  
G|--------------------------------------------------------------------|  
D|---------------------------------9-7-9------------------------------|  
A|-7-----7---7-----7-------7---7-7-7-7-7-x----------7-7h9p7---7-9-----|  
E|-5-5-5-5-5-5-5-5-5-5-5-5-5-5--------------7-7-7h9---------9---------|  




e|--------------------------------------------------------------------|  
B|--------------------------------------------------------------------|  
G|--------------------------------------------------------------------|  
D|------9-7-9---------------------------------------------------------|  
A|--7-7-7-7-7---7-7-7-7-7-7-7-7---------------------------------------|  
E|--------------5-5-5-5-5-5-5-5---------------------------------------|  

Intro E D D A (4x) E I can't get no... A Satisfaction, E I can't get no... A Satisfaction, Bridge: E B7 And I try, and I try, E A And I try, and I try.
E D A E D I can't get no.....Satisfaction, A E D A E D I can't get no.....Satisfaction,
verse 1: E D D A When I'm driving in my car, E D D A And that man comes on the radio, E D D A And he's tellin' me more and more, A D D A 'Bout some useless information, E D D A Supposed to fire my imagination, E D I can't get no... D A E Oh (E D D A) (2x) Hey hey hey...Thats what I say. E I can't get no... A Satisfaction, E I can't get no... A Satisfaction, Bridge: E B7 And I try, and I try, E A And I try, and I try.
E D A E D I can't get no.....Satisfaction, A E D A E D I can't get no.....Satisfaction,
verse 2 E D D A When I'm watching my TV E D D A And some man comes on and tells me, E D D A How white my shirts could be. E D D A But he can't be a man,'cause he doesn't smoke, E D D A The same cigarettes as me. E D I can't get no... D A E Oh no no no... (E D D A) (2x) Hey hey hey...Thats what I say. E I can't get no... A Satisfaction, E I can't get no... A Satisfaction, Bridge: E B7 And I try, and I try, E A And I try, and I try.
E D A E D I can't get no.....Satisfaction, A E D A E D I can't get no.....Satisfaction,
Verso 3: E D D A When I'm riding 'round the world, E D D A And I'm doing this, and I'm signing that, E D D A And I'm trying to meet some girl, E D D A And tell me,'Baby, better come back. Maybe next week, E D D A 'Cause you see I'm on a losin' streak.' E D D A E I can't get no...Oh no no no... (E D D A) (2x) Hey hey hey...Thats what I say.

Compartilhe esta música: novo

QR Code
Copiar