In the shadows

The Rasmus

Tom: D
G|-9-| (Várias vezes) - O alarme do começo... 

Intro  
              
E|-------------------------------------------------------------------------------------|
B|-------------------------------------------------------------------------------------|
G|-------------------------------------------------------------------------------------| 
D|-------------------------------------------------------------------------------------| 
A|-5-5-5-7-5-4-0------------------------------------------------------------------| 
E|----------------------2-2-2-0-0-2-5-7-9-10-7-10-9-5-2-2-4-4-5---------| 
 

E|---------------------------------------------------------------------------------------------| 
B|---------------------------------------------------------------------------------------------| 
G|-7-7-7-7-7-----------------------------4--6--7-7-7-7---------------------------------| 
D|-7-7-7-7-7---4-4-4-4-4-4-4---7---4--6--7-7-7-7---4-4--6-6--7-7--8-8------| 
A|-5-5-5-5-5---4-4-4-4-4-4-4---7---2--4--5-5-5-5---4-4--6-6--7-7--8-8------| 
E|-----------------2-2-2-2-2-2-2---5-----------------------2-2--4-4--5-5--6-6------|

  
E|---------------------------------------------------------------------------------------------| 
B|---------------------------------------------------------------------------------------------| 
G|-7-7-7-7-7-----------------------------4--6--7-7-7-7---------------------------------| 
D|-7-7-7-7-7---4-4-4-4-4-4-4---7---4--6--7-7-7-7---4--6--7--6--7-------------| 
A|-5-5-5-5-5---4-4-4-4-4-4-4---7---2--4--5-5-5-5---4--6--7--6--7-------------| 
E|-----------------2-2-2-2-2-2-2---5-----------------------2--4--5--4--5-------------|
D F#m No sleep D F#m No sleep until I'm done with finding the answer D F#m Won't stop D F#m Won't stop before I find the cure for this cancer D F#m D F#m Sometimes I feel like going down, I'm so disconnected D F#m D F#m Somehow I know that I am haunted to be wanted (D F#m) I've been watching, I've been waiting In the shadows for my time I've been searching, I've been living For tomorrows all my life
E|---------------------------------------------------------------------------------------------| 
B|---------------------------------------------------------------------------------------------| 
G|-7-7-7-7-7-----------------------------4--6--7-7-7-7---------------------------------| 
D|-7-7-7-7-7---4-4-4-4-4-4-4---7---4--6--7-7-7-7---4-4--6-6--7-7--8-8------| 
A|-5-5-5-5-5---4-4-4-4-4-4-4---7---2--4--5-5-5-5---4-4--6-6--7-7--8-8------| 
E|-----------------2-2-2-2-2-2-2---5-----------------------2-2--4-4--5-5--6-6------|
                                                                                                           X 2
  
E|---------------------------------------------------------------------------------------------| 
B|---------------------------------------------------------------------------------------------| 
G|-7-7-7-7-7-----------------------------4--6--7-7-7-7---------------------------------| 
D|-7-7-7-7-7---4-4-4-4-4-4-4---7---4--6--7-7-7-7---4--6--7--6--7-------------| 
A|-5-5-5-5-5---4-4-4-4-4-4-4---7---2--4--5-5-5-5---4--6--7--6--7-------------| 
E|-----------------2-2-2-2-2-2-2---5-----------------------2--4--5--4--5-------------|
In the shadows..... (D F#m) They say that I must learn to kill before I can feel safe But I, I'd rather kill myself than turn into their slave Sometimes I feel that I should go and play with the thunder Somehow I just don't wanna stay and wait for a wonder I've been watching, I've been waiting In the shadows for my time I've been searching, I've been living For tomorrows all my life (D F#m A) Lately, I've been walking, walking in circles Watching, waiting for something Feel me, touch me, heal me Come take me higher (D F#m) I've been watching, I've been waiting In the shadows for my time I've been searching, I've been living For tomorrows all my life I've been watching, I've been waiting I've been searching, I've been living For tomorrow's
E|---------------------------------------------------------------------------------------------| 
B|---------------------------------------------------------------------------------------------| 
G|-7-7-7-7-7-----------------------------4--6--7-7-7-7---------------------------------| 
D|-7-7-7-7-7---4-4-4-4-4-4-4---7---4--6--7-7-7-7---4-4--6-6--7-7--8-8------| 
A|-5-5-5-5-5---4-4-4-4-4-4-4---7---2--4--5-5-5-5---4-4--6-6--7-7--8-8------| 
E|-----------------2-2-2-2-2-2-2---5-----------------------2-2--4-4--5-5--6-6------|
                                                                                                         X 2
  
E|---------------------------------------------------------------------------------------------| 
B|---------------------------------------------------------------------------------------------| 
G|-7-7-7-7-7-----------------------------4--6--7-7-7-7---------------------------------| 
D|-7-7-7-7-7---4-4-4-4-4-4-4---7---4--6--7-7-7-7---4--6--7--6--7-------------| 
A|-5-5-5-5-5---4-4-4-4-4-4-4---7---2--4--5-5-5-5---4--6--7--6--7-------------| 
E|-----------------2-2-2-2-2-2-2---5-----------------------2--4--5--4--5-------------|
D I've been watching

Compartilhe esta música: novo

QR Code
Copiar