Mr. Clean

The Jam

Tom: Dm
Riff
e|-8-8-8-6-3-8-8-8-6-3-8-8-8-6-3--8--6--15---------| 
B|-8-8-8-6-3-8-8-8-6-3-8-8-8-6-3--8--6--15---------| 
G|-------------------------------------------------| 
D|-------------------------------------------------| 
A|-------------------------------------------------| 
E|-------------------------------------------------| 

Dm Am Dm Daylight dawns, you wake up and yawn, Mr. Clean. Dm Am Dm A piece of toast from the one you love most and you leave. Am G You catch your bus, in the 8'o'clock rush, Am G And catch your train, in the morning rain. C C Mr. Clean, Mr. Clean. (riff 1) Dm Am Dm If you see me, in the street, look away. Dm Am Dm Cos I don't ever want to catch you looking at me, Mr. Clean. Am G Cos I hate you, and your wife, Am G And if I get the chance I'll fuck up your life. C C Mr. Clean, Mr. Clean. (riff 1) Is that seen? Em7 Dm7 Surround yourself with dreams, C F# Am D Of pretty young girls and anyone you want but, Em7 Dm7 C G Please don't forget me, or any of my kind, Em7 Dm7 Cos I'll make you think again, C G When I stick your face in the grind.
e|------------------------------------------------------------------------| 
B|--8---------------8--7--------8-------------8---7-----------------------| 
G|-----9---------9-------7--------9--------9---------7--------------------| 
D|-------10---10------------9-------10--10--------------9-----------------| 
A|------------------------------------------------------------------------| 
E|------------------------------------------------------------------------| 

C Bm Getting pissed, at the annual office do, C Bm Smart new suit, and you went to Cambridge too, C Bm You miss page 3, but the Times is right for you, Bm And mum and dad are very proud of you. C Bm Mr. Clean, Mr. Clean. C Bm Mr. Clean, Mr. Clean.

Compartilhe esta música: novo

QR Code
Copiar