Empty Bones

The Growlers

Tom: C#m
INTRO 
C#m 
   F#m               B         G#   C#m 
e|--------------------------------------------------| 
B|--------------------------------------------------| 
G|-----------------------------------------6--------| 
D|-4---------------4-2----2-4-/6-66-----------------| 
A|----------------------------------4---------------| 
E|--------------------------------------------------| 

   F#m                             B          G#      C#m 
e|---------------------------------------------------------------------------------| 
B|---------------------------------------------------------------------------------| 
G|------------------------------------4-----------4--------------------------------| 
D|-/4---4-2-4---4-2-4-/6--6-6--4--/6----6-4---/6---6-4-----------------------------| 
A|------------------------------------------7---------7-4--2-4--4-2-4---4-2-4--4-2-| 
E|---------------------------------------------------------------------------------| 

   F#m                              B           G#     C#m 
e|---------------------------------------------------------------------------------| 
B|---------------------------------------------------------------------------------| 
G|--------------------------------------4----------4--46-5-4-3---------------------| 
D|-/4-------4-------4------/6---4---/6----6-4---/6--6----------7-6-5-4-------------| 
A|------4-------4-------4---------------------7------------------------4--44-2-4---| 
E|---------------------------------------------------------------------------------| 
Chorus F#m I met you in the past, I met you in the past B G# C#m But I forgot to ask your name. F#m I kept you in my dreams, I kept you in my dreams B G# C#m but it only seems to feed the flame F#m give me another chance to break me from this trance B G# C#m to get you in my hands again BRIDGE A Oh fill my empty bones G# C#m For I was a heavy stone F#m B Fill my fill my hollow bones C#m Hear my lonesome moans SOLO (play the second bar of the intro) Chorus F#m I met you in the past, I met you in the past B G# C#m But I forgot to ask your name. F#m I kept you in my dreams, I kept you in my dreams B G# C#m but it only seems to feed the flame F#m give me another chance to break me from this trance B G# C#m to get you in my hands again BRIDGE A Oh fill my empty bones G# C#m For I was a heavy stone F#m B Fill my fill my hollow bones C#m Hear my lonesome moans INTERLUDE A G# C#m A G# F#m B C#m OUTRO JAM C#m Now I can’t leave it be Your goddamn memory has F#m Taken over me and your face is all I see SOLO BIT C#m F#m C#m Zombie around I run around and wind up in the same town I F#m run around like a dirty hound until your found C#m being young and feeling old and having just my drink to hold F#m lurkin searchin on the road to find the only love I know SOLO BIT C#m F#m C#m Now I can’t leave it be Your goddamn memory has F#m Taken over me and your face is all I see C#m Zombie around I run around and wind up in the same town I F#m run around like a dirty hound until your found C#m being young and feeling old and having just my drink to hold SOLO BIT C#m F#m END (repeat 3x, end on 'mind' the last round) C#m wild night of lust now only in my mind F#m I knew I couldn’t trust this treacherous heart of mine....

Compartilhe esta música: novo

QR Code
Copiar