Chinese Fountain

The Growlers

Tom: Cm
The Growlers - Chinese Fountain 

INTRO 
Cm \ 2x 
Eb / 

verse 1 
Cm 
Keep tossing quarters in a Chinese fountain 
  Eb 
A whole bunch of wishes unanswered, but who’s counting 
Cm 
1, 2, 3, 9 chicks left me brokenhearted 
        Eb 
I was a pretty boy, till love left me scarred 
        Cm 
There’s something going around, can’t put my finger in 
     Eb 
Like bigger fish are going to shoot out of the earth like diamonds 

Chorus 
F                     Cm 
 We are the miners of another generation 
Ab                         Eb 
 Hills scraped dry with no choice but be creative 
F                  Cm 
 Everybody sick and tired of waiting 
Ab               Eb 
Couldn’t get any harder to be patient 
INTERLUDE (2x) 
   Cm                             Eb 
e|---------------3---------------3--------------3--------| 
B|-----4---4--6--------4---4--6--------4------4----6--4--| 
G|---5---5-----------5---5-------------------------------| 
D|-------------------------------------------------------| 
A|-------------------------------------------------------| 
E|-------------------------------------------------------| 
verse 2 Cm Is techno so shitty, even disco seems punk Eb Like the water so filthy, it’s no wonder why we’re drunk Cm Every little kid wants a computer in his pocket Eb The trophies on the mantels of the digital profits Cm The internet is bigger than Jesus and John Lennon Eb And nobody wants to know where we’re heading Chorus F Cm We are the miners of another generation Ab Eb Hills scraped dry with no choice but be creative F Cm Everybody sick and tired of waiting Ab Eb Couldn’t get any harder to be patient
GUITAR SOLO 
  Cm                                          Eb 
e|--11p8-----8----------11p8-----8-11p8-15-13-11--11--11\-8--8----------------| 
B|--------11--11p8---8--------11--------------------------------11\-8/-11\-8--| 
G|-----------------10---------------------------------------------------------| 
D|----------------------------------------------------------------------------| 
A|----------------------------------------------------------------------------| 
E|----------------------------------------------------------------------------| 

  Cm                                          Eb 
e|--11p8-----8----------11p8-----8-11p8---------------------------------------------| 
B|--------11--11p8---8--------11-------8h11-8-------8-----------------8------8--11--| 
G|-----------------10--------------------------8h10---10p8----8--8h10----10---------| 
D|---------------------------------------------------------10-----------------------| 
A|----------------------------------------------------------------------------------| 
E|----------------------------------------------------------------------------------| 
verse 3 (same as verse 1) Cm Keep tossing quarters in a Chinese fountain Eb A whole bunch of wishes unanswered, but who’s counting Cm 1, 2, 3, 9 chicks left me brokenhearted Eb I was a pretty boy, till love left me scarred Chorus F Cm We are the miners of another generation Ab Eb Hills scraped dry with no choice but be creative F Cm Everybody sick and tired of waiting Ab Eb Couldn’t get any harder to be patient
OUTRO RIFF (same as interlude 8x) 
   Cm                             Eb 
e|---------------3---------------3--------------3--------| 
B|-----4---4--6--------4---4--6--------4------4----6--4--| 
G|---5---5-----------5---5-------------------------------| 
D|-------------------------------------------------------| 
A|-------------------------------------------------------| 
E|-------------------------------------------------------| 
End with a couple of rounds of: Cm Eb

Compartilhe esta música: novo

QR Code
Copiar