Quicksilver

The Field Mice

Tom: C#
Intro 
e|----------------| 
B|----------------| 
G|----------------| (x4) 
D|----------------| 
A|--------------4-| 
E|-4-0-2--0-2-4---| 
Intro: C# G# F# D#m G# (x2) verse 1 C# G# The last time that I saw you F# I was just and you were D#m G# You were nearly 13 verse 2 C# G# It was a summers day F# It was shortly after D#m G# Our last term together Instrumental: C# G# F# D#m F# G#
C# Dearly I would love F# Dearly I would love G# B C# To see you again
Instrumental 
e|----------------| 
B|----------------| 
G|----------------| (x4) 
D|----------------| 
A|--------------4-| 
E|-4-0-2--0-2-4---|
C# G# F# D#m G# verse 3 C# G# Do you still in that grove F# That I look down almost D#m G# Every time I pass it verse 4 C# G# I dreamt of you last night F# I have done many times D#m G# Since I last set eyes on you Instrumental: C# G# F# D#m F# G#
C# Dearly I would love F# Dearly I would love G# B C# To see you again C# Dearly I would love F# Dearly I would love G# B C# To see you again
Outro 
e|----------------| 
B|----------------| 
G|----------------| (x6) 
D|----------------| 
A|--------------4-| 
E|-4-0-2--0-2-4---|

Compartilhe esta música: novo

QR Code
Copiar