Between Hello And Goodbye

The Field Mice

Tom: C
verse 1 
C            G              F 
 I love the way you look at me 
           G#         
 When you want me to hold you 
C                G                     F 
 And I love the way it feels when you place 
  G# 
 Your arms around me 
C               G             F 
 Because of you I have known both 
 G# 
 Happiness and heartbreak 

Em G F You always have to leave Em G F You always have to leave C Am And I can't promise you F Something you want me to
verse 2 C G F Beaches and parks, the shade of a tree G# Hot days and hot nights C G F I've held your hand and I've watched you sleep G# In your arms I have cried C G F There never is much time between G# Hello and goodbye
Em G F You always have to leave Em G F You always have to leave C Am And I can't promise you F Something you want me to
Bridge Fm Something that I Bb G# Do not believe Bb C That I don't believe
e|-3-1-0-0--3-1-0-----------5p3-1-0-| 
B|----------------1------1----------| 
G|-------------------0h2------------| 
D|----------------------------------| 
A|----------------------------------| 
E|----------------------------------| 
Em G F You always have to leave Em G F You always have to leave C Am And I can't promise you F C Something you want me to
Outro
e|-15-13-12-12--15-13-12----| 
B|-----------------------13-| 
G|--------------------------| 
D|--------------------------| 
A|--------------------------| 
E|--------------------------|

Compartilhe esta música: novo

QR Code
Copiar