Animal Instinct

The Cranberries

Tom: Em
Intro: (Em  Am  C  D) 2x 
 
 
Em         Am                        C 
  Suddenly something has happened to me  
           D                Em  
  As I was having my cup of tea 
           Am              C  
  Suddenly I was feeling depressed 
         D                     Em   
  I was utterly and totally stressed  
         Am               C  D    Em  
  Do you know you made me cry ouoou 
         Am               C  D  
  Do you know you made me die  
          Em                 Am      
  And the thing that gets to me  
            C              D 
  Is you'll never really see 
          Em                   Am     
  And the thing that freaks me out  
            C             D   
  Is I'll always be in doubt  
G         D                    C      
  It is a lovely thing that we have  
          D   
  It is a lovely thing that we  
G         D                 C     
  It is a lovely thing, the animal  
      D   
  The animal instinct  
Em       Am       C        D 
   uhuhu    uhuhu    uhuhuhuuuu 
 
Solo: 
e------------------------------------------------------------------- 
B------------------------------------------------------------------- 
G---4/5--42--4---5-/-7---5---5-5-----4/5--42--4---5---0---2--2---- 
D------------------------------------------------------------------- 
A------------------------------------------------------------------- 
E------------------------------------------------------------------- 
                      * nesses 'slides' espaçados, a nota deve ser 
                        executada 
Em Am C So take my hands and come with me D We will change reality Em Am C So take my hands and we will pray D They won't take you away Em Am C D Em They will never make me cry, nouou Am C D They will never make me die Em Am And the thing that gets to me C D Is you'll never really see Em Am And the thing that freaks me out C D Is I'll always be in doubt Em Am C D The animal, the animal, the animal instinct in me Em Am C D It's the animal, the animal, the animal instinct in me Em Am C D It's the animal, it's the animal, it's the animal instinct in me Em Am C D It's the animal, it's the animal, it's the animal instinct in me Em Am C D The animal, the animal, the animal instinct in me Em Am C D It's the animal, it's the animal, it's the animal instinct in me
Solo: 
e------------------------------------------------------------------- 
B------------------------------------------------------------------- 
G---4/5--42--4---5-/-7---5---5-5-----4/5--42--4---5---0---2--2---- 
D------------------------------------------------------------------- 
A------------------------------------------------------------------- 
E------------------------------------------------------------------- 
                       
e------------------------------------------------------------------- 
B------------------------------------------------------------------- 
G---0-0-0-2---2-2---4-4-4-2---2-2---4-4-4-2---2-2---0-0-0-2---2-2--- 
D------------------------------------------------------------------- 
A------------------------------------------------------------------- 
E------------------------------------------------------------------- 
 
e------------------------------------------------------------------- 
B------------------------------------------------------------------- 
G---/-4/5--42--4---5-/-7-/-9-9-9--9-9-9-9-9--7--7-7--5-5-5-4--4-4-- 
D------------------------------------------------------------------- 
A------------------------------------------------------------------- 
E------------------------------------------------------------------- 
 
e------------------------------------------------------------------- 
B------------------------------------------------------------------- 
G---0-0-0-2---2-2--0-0-0-2---2-2-/-4-4-4-2---2-2---0-0-0-2---2-2--0- 
D------------------------------------------------------------------- 
A------------------------------------------------------------------- 
E-------------------------------------------------------------------

Compartilhe esta música: novo

QR Code
Copiar