Couldn't Care Less

The Cardigans

Tom: Gm
Capotraste na 3ª casa
 
Intro Em  Am 

E|------------------------------------------| 
B|------------------------------------------| 
G|--0h2-0------------0--0h2--0------0--2/4~-| 
D|--------0h2----0h2------------0h2---------| 
A|------------------------------------------| 
E|------------------------------------------|
E|------------------------------------------| 
B|------------------------------------------| 
G|-0-0-------------0-------------------0----| 
D|-----0h2-0---------0h2-0------0--0h2---2--| 
A|-----------0h2------------0h2-------------| 
E|------------------------------------------|
Am Oh, my heart can't carry much more
It's really, really aching and sore
Em My heart don't care anymore G2 I really can't bear more Am My hands don't work like before I shiver and I scrape at your door Em My heart can't carry much more D C Em But you couldn't care less, could you? Am Your face don't look like before
It's really not like yours anymore
Em Your eyes don't like me no more G2 They quiver and they shift to the floor Am My heart don't beat like before
It's never been this slow
Em No, my blood don't flow anymore D C Em And you couldn't care less, could you? C G2 Am G C Could we stop and sleep for a spell C G2 Am G C We can turn this ditch into a well C G2 Am G C And send that old devil back to hell D C Em But we really don't care, do we? C G2 Am G C Baby, let's stop and sleep for a spell C G2 Am G C We can turn this ditch into a well C G2 Am G C And send that old devil back to hell Am Your back's not straight like before You really shouldn't carry me no more Em I'm much too heavy for you I'm really quite a mess, yes Am We just don't care anymore We're crooked and we're cut to the core Em We're just not there anymore D C But we really don't care, do we? D C No, we couldn't care less D C We couldn't care less Em Could we?

Compartilhe esta música: novo

QR Code
Copiar