Superball

The Barbaras

Tom: G
verse 1 

G 
Oh superball 
C                      G 
I'm trying to get to you and show you how I love, 
C           
Although I know I shouldn't do it to you now, 
Bm 
Cause this has gong on way too long anyhow, 
C           Bm 
I'm running out of pretty songs, 
G 
Superball, 
C  
Won't you stay another hour pretty girl, 
G                 C 
Won't you come and take a shower with me, 
Bm               C 
I want to watch you shave your legs, 
Bm                C 
Baby please and you can help me brush your teeth 


verse 2 

G 
Now little one 
C                G 
Do you remember how it felt to be alone 
C                     Bm 
Before you ever had a boy to call your own  
C                   Bm 
And all those scumbags threw a party at the stone 
G                 C 
It's weighing heavy on my heart 
G 
Oh Superball, 
C                      
I'm trying to get to you and show you how I love, 
G                        C 
Although a hundred kisses wouldn't be enough,  
Bm                 C 
And just like every other guy I'm in love, 
Bm                  C 
I can't imagine your surprise 

e|3-3-3-3-----------3-3-3-3----------------------------------------------| 
B|3-3-3-3--5-5-5-5--3-3-3-3--5-5-5-5--3-3-3-3--5-5-5-5--3-3-3-3--5-5-5-5-| 
G|4-4-4-4--5-5-5-5--4-4-4-4--5-5-5-5--4-4-4-4--5-5-5-5--4-4-4-4--5-5-5-5-| 
D|5-5-5-5--5-5-5-5--5-5-5-5--5-5-5-5--4-4-4-4--5-5-5-5--4-4-4-4--5-5-5-5-| 
A|5-5-5-5--3-3-3-3--5-5-5-5--3-3-3-3--2-2-2-2--3-3-3-3--2-2-2-2--3-3-3-3-| 
E|3-3-3-3-----------3-3-3-3----------------------------------------------| 

Short melody that plays after first Chorus during verse 
e|15-14-----------15-14-----------------------------------------------15-----| 
B|------12-13-----------12-13-----12-12-13-15-17-15-12----12-13-15-17--------| 
G|---------------------------------------------------------------------------| 
D|---------------------------------------------------------------------------| 
A|---------------------------------------------------------------------------| 
E|---------------------------------------------------------------------------|
Pre-Chorus Bm You say you dream of things, C You never liked before, G Can I be in your dreams, E You're sleeping on your floor Bm I'll give you anything C Just come and stay with me G Cook for you everyday E And Wipe your tears away
Let these chords ring 
e|--------------3------0-| 
B|3------3------3------0-| 
G|4------5------4------1-| 
D|4------5------5------2-| 
A|2------5------5------2-| 
E|--------------3------0-|
A Please hurry babe C I can't wait G I cant wait, E Till you're in my arms A I'm waiting for you superball C Bm I'm waiting for you superball A Under the stars in my car C We'll be making out, G After you say that's E Okay you'll show me how A Please hurry babe C I can't wait, G I can't wait, E Forever
  A        C        G        E  
e|0-0-0-0-----------3-3-3-3--0-0-0-0-| 
B|2-2-2-2--5-5-5-5--3-3-3-3--0-0-0-0-| 
G|2-2-2-2--5-5-5-5--4-4-4-4--1-1-1-1-| 
D|2-2-2-2--5-5-5-5--5-5-5-5--2-2-2-2-| 
A|0-0-0-0--3-3-3-3--5-5-5-5--2-2-2-2-| 
E|------------------3-3-3-3--0-0-0-0-| 

e|0-0-0-0-0-0-0-0------------------| 
B|2-2-2-2-2-2-2-2--5-5-5-5-3-3-3-3-| 
G|2-2-2-2-2-2-2-2--5-5-5-5-4-4-4-4-| 
D|2-2-2-2-2-2-2-2--5-5-5-5-4-4-4-4-| 
A|0-0-0-0-0-0-0-0--3-3-3-3-2-2-2-2-| 
E|---------------------------------| 
Outro G I'm waiting for you superball C I'm waiting for you superball G I'm waiting for you superball G I'm waiting for you superball C I'm waiting for you superball G I'm waiting for you superball C I'm waiting for you superball G I'm waiting for you superball C Bm

Compartilhe esta música: novo

QR Code
Copiar