Breathing Underwater

The Barbaras

Tom: D
Intro: D

G                B              C          Cm 
You can finally shine for your light has come 

G                B           C         Cm 
You can finally die for your life is done 

G                    G7          Em           Eb 
The ???? gets off ???????? your dreams I feel alive in 

C           B                    G            D 
sometimes I feel like the only one 

G                B              C           Cm 
The night collapses under the weight of her breast 

G           B          C              Cm 
A child ?????? in the warmth of her nest 

     G                   G7          Em                    Eb 
I'm ?????? your door forever we'll fall through the floor forever 

C             B                      G            D 
  sometimes I feel it so tight on my chest 


Solo:  


e|---------------------------------------------------------------------------| 
B|---------------------------------------------------------------------------| 
G|---------------0--0-2-0-2--------------------------------------------------| 
D|---------2--2--------------0--0--2--2--0--3-3-3-3-3------------------------| 
A|---3--3--------------------------------------------------------------------| 
E|---------------------------------------------------------------------------| 

e|---------------------------------------------------------------------------| 
B|---------------------------------------------------------------------------| 
G|--------------0--0-2-0-2---------------------------------------------------| 
D|--------2--2---------------------------------------------------------------| 
A|--3--3---------------------------------------------------------------------| 
E|---------------------------------------------------------------------------| 
D D# G# C C# C#m So now I'm breathing underwater with you G# C C# C#m From ???????????????????? and blue G# G#7 Em E and if you pulled me under I'll never let you down C# C G# D# struggle and drown into you Solo: A C# D Dm A C# D Dm A A7 F#m F D C# A E A C# D Dm So now I'm breathing underwater with you A C# D Dm From ???????????????????? and blue A A7 F#m F and if I pulled you under I'll never let you down D C# A E struggle and drown into you A C# D Dm breathing underwater with youuuuuuuuuuuuuuu A C# D Dm breathing underwater with youuuuuuuuuuuuuu A A7 F#m F breathing underwaterrrr D C# A *fades out

Compartilhe esta música: novo

QR Code
Copiar