Stjarna Som Ar Din

Thåström

Tom: D
Intro:          D               G 
            e:------------------------------------| 
            b:------------------------------------| 
            g:------------------------------------| 
            d:----0---0---0---0---0---0---0---0---| 
            a:--0---0---0---0---------------------| 
            e:------------------3---3---3---3-----| 
(lyssna på låt för antal gånger det ska spelas, timing, etc...) D G Verse: Du jag vet en hemlighet Det finns en stjärna man får ta ner Det finns en stjärna som är din Och vill du veta en sak till När skeppen lägger ut från land Och du ska långt långt bort nånstans Ta den alltid med i din hand Ta den alltid med överallt D (Em) G A A~ (låt ringa) Refräng: Jag önskar dig allt vackert för du är D (här går det tillbaka till intro igen) Det bästa som jag vet
Intro:          D               G 
            e:------------------------------------| 
            b:------------------------------------| 
            g:------------------------------------| 
            d:----0---0---0---0---0---0---0---0---| 
            a:--0---0---0---0---------------------| 
            e:------------------3---3---3---3-----| 
D G Vers 2: Vad jag önskar att du får Allt det där som du vill åt Jag önskar seglen tar dig med Till en oupptäckt planet Ingenting av det här Ingenting av det där D (Em) G A Refräng 2: Jag önskar dig allt vackert för du är D Em G Det bästa som jag vet A D Em G Det bästa som jag vet A D Em G Det bästa som jag vet A D Em G Det bästa som jag vet A D (intro igen...) Det bästa som jag vet D G Vers 3: Följ med fjärilar och fåglar som du ser Kasta allting som du inte vill ha med När vägen går isär och floden blir ett hav Låt din stjärna visa vilken väg du ska D G Outro: ...Det bästa som jag vet (spela till slutet...) (..sluta på ett D)

Compartilhe esta música: novo

QR Code
Copiar