111 Ele Chamara

Testemunhas de Jeová

Tom: D
Intro: 
E|--16---14---16---19---12-12--14-14--16-16------------------- 
B|------------------------------------------------------------ 
G|---------------------------------------------7--9—10-8-5--3- 
D|----------------------------------------------------------0- 
A|------------------------------------------------------------ 
E|------------------------------------------------------------ 

   D             G      A      D                   G 
A Vida é qual bruma lá no mar.  Não dura muito tempo 
Quando Adormece alguém especial. Jeová jamais esquece 

E|----------------------------------------------------------- 
B|---7--5--7--10---3-3-5-5-7-7------7---5-5-7---------------- 
G|--------------------------------------------7-------------- 
D|-------------------------------7---------------9------9--7- 
A|----------------------------------------------------------- 
E|----------------------------------------------------------- 
Em Bm C Bm Tudo o que somos pode acabar, deixando sofrimento. Quem na memória de Jeová esta, despertara em breve
E|------------------------------------------------------ 
B|--8--7-8--12---7-7--5-5-7-8--10--7-5-5-7-----12------- 
G|------------------------------------------7----------- 
D|------------------------------------------------------ 
A|------------------------------------------------------ 
E|------------------------------------------------------
G D Em7 G A7 Se alguém morrer pode reviver? Ouça o que Jeová fará: Juntos vamos ver como é bom viver: verdadeira vida ter.
E|-------------------------------------------------------- 
B|---12--3-2-3--12---10--3-2-3--10----10--8-8-7-7-8------- 
G|--------------------------------------------------9----- 
D|-------------------------------------------------------- 
A|-------------------------------------------------------- 
E|-------------------------------------------------------- 
D A7 D Chamara os que estão mortos
E|-------------------------------- 
B|--------------7-8-5-10---------- 
G|---7-9--11--------------7------- 
D|-------------------------------- 
A|-------------------------------- 
E|-------------------------------- 

G  A  Bm      F#m   G     A  F#m7  Am7  D7  G    Gm 
Á sua voz Responderão   Jeová      terá saudades 

E|------------------------------------------------------------- 
B|--12-14-15-15-14--10—12------12/14---14--10-10-10-10-12-10--- 
G|------------------------12--------------------------------12- 
D|------------------------------------------------------------- 
A|------------------------------------------------------------- 
E|------------------------------------------------------------- 

         D    A7       D 
Do trabalho das suas mãos 

E|--------------------------------------- 
B|-7-9--11------------------------------- 
G|--------------10-8-5------------------- 
D|-----------------------7--------------- 
A|--------------------------------------- 
E|--------------------------------------- 

          D        A7      D 
Tenha fé já... mais duvide 

E|-------------------------------------------- 
B|-------------8-7-5-10----------------------- 
G|--7-9--11--------------7--------------------- 
D|-------------------------------------------- 
A|-------------------------------------------- 
E|-------------------------------------------- 

     G   A   Bm  F#m    G A   F#m7  Am7  D7    G   Gm 

Quem   Amamos  voltara pra sem    pre viveremos 

E|----------------------------------------------------------- 
B|--12-14-15-15-14--10--12--12/14---14--10-10-10-10-12-10---- 
G|--------------------------------------------------------12- 
D|----------------------------------------------------------- 
A|----------------------------------------------------------- 
E|----------------------------------------------------------- 

           D        A7    D 
Com as bênçãos de Jeová 

E|-------------------------------------------- 
B|------------10-8-5------------------------- 
G|--7-9--11-----------7------------------------ 
D|-------------------------------------------- 
A|-------------------------------------------- 
E|-------------------------------------------- 
( Intro )

Compartilhe esta música: novo

QR Code
Copiar