ToxicityCifra Verificada

System Of A Down

Tom: Cm
  

intro:  

riff 1  
guit 1 & violão aço (guit 1 P.M., violão aço deixe soar)  


D|--------------------------------|--------------------------------------|  
A|---10---10---10---10---10---10--|----13----13----13----13----13----13--|  
F|-7----7----7----7----7----7-----|/10----10----10----10----10----10-----|  
C|--------------------------------|--------------------------------------|  
G|--------------------------------|--------------------------------------|  
C|--------------------------------|--------------------------------------|  
   P.M..................................................................                                                                         
   
 
D|--------------------------------|--------------------------------------|  
A|---10---10---10-11---11-10---10-|-----13----15----15-13----13-11----11-|  
F|-7----7----7-------7-------7----|-/10----10----10-------10-------10----|  
C|--------------------------------|--------------------------------------|  
G|--------------------------------|--------------------------------------|  
C|--------------------------------|--------------------------------------|  
   P.M..............................................  
    
riff 2  
 
D||----------------------------------------||---------------------------||  
A||----------------------------------------||---------------------------||  
F||----------------------------------------||---------------------------||  
C||-0------------------8--8-8-8--7--7-7-7--||---------------------------||  
G||-0----3-2-0-2-0-----8--8-8-8--7--7-7-7--||-3-2-0-2-0-0--3-2-0-2-0-0--||  
C||-0----3-2-0-2-0-----8--8-8-8--7--7-7-7--||-3-2-0-2-0-0--3-2-0-2-0-0--||  
         P.M. ....                            P.M.....................  

 
D|---------------------|----------------------------------------|  
A|---------------------|----------------------------------------|  
F|---------------------|----------------------------------------|  
C|-8--8-8-8--7--7-7-7--|-0------------------8--8-8-8--7--7-7-7--|  
G|-8--8-8-8--7--7-7-7--|-0----3-2-0-2-0-----8--8-8-8--7--7-7-7--|  
C|-8--8-8-8--7--7-7-7--|-0----3-2-0-2-0-----8--8-8-8--7--7-7-7--|  
                              P.M. ....  

riff1  

 
riff3   
 
D|-------------------------------|-----------12-------13-------12--------|  
A|---10---10---10---10---10---10-|-----13-------13-------13-------13-----|  
F|-7----7----7----7----7----7----|-/10----10-------10-------10-------10--|  
C|-------------------------------|---------------------------------------|  
G|-------------------------------|---------------------------------------|  
C|-------------------------------|---------------------------------------|  
                                                                             2x  
   D5             D(#5)   D5        F5        F6       F5       Fsus4  
D|--------------------------------|--------------------------------------|  
A|---10---10---10-11---11-10---10-|-----13----15----15-13----13-11----11-|  
F|-7----7----7-------7-------7----|-/10----10----10-------10-------10----|  
C|--------------------------------|--------------------------------------|  
G|--------------------------------|--------------------------------------|  
C|--------------------------------|--------------------------------------|  

parte B  
riff 2  

riff 1  

parte A  
riff4  

D|--------------------------------|-----------12-------13-------12--------|  
A|---10---10---10-11---11-10---10-|-----13-------13-------13-------13-----|  
F|-7----7----7-------7-------7----|-/10----10-------10-------10-------10--|  
C|--------------------------------|---------------------------------------|  
G|--------------------------------|---------------------------------------|  
C|--------------------------------|---------------------------------------|  

   
D|--------------------------------|--------------------------------------|  
A|---10---10---10-11---11-10---10-|-----13----15----15-13----13-11----11-|  
F|-7----7----7-------7-------7----|-/10----10----10-------10-------10----|  
C|--------------------------------|--------------------------------------|  
G|--------------------------------|--------------------------------------|  
C|--------------------------------|--------------------------------------|  

riff3  

parte B  
riff 2  


interlúdio  
riff4  

D|---------------------------------------------|  
A|---------------------------------------------|  
F|---------------------------------------------|  
C|---------------------------------------------|  
G|-5-5-5-5-8p5-5--7b8---5-5-5-5-5-5-8p5-5--7~~-|  
C|---------------------------------------------|  

D|-----------------------------------------|  
A|-----------------------------------------|  
F|-----------------------------------------|  
C|-----------------------------------------|  
G|-5-5-5-5-8p5-5--7b8---5-5-5-5-8p5-5--7\--|  
C|-----------------------------------------|  

parte C  
riff5  
  
D|--------------------------------------------------|  
A|--------------------------------------------------|  
F|--------------------------------------------------|  
C|--------------------------------------------------|  
G|-3-0-0-0-0-0-3-0-0-0-0-0-3-0-0-0-0-0-3-0-0-0-0-0--|  
C|-3-0-0-0-0-0-3-0-0-0-0-0-3-0-0-0-0-0-3-0-0-0-0-0--|  
   P.M............................................  

riff6                (4x)  
D|-----------------------|  
A|-----------------------|  
F|-----------------------|  
C|-----------------------|  
G|-----------------------|  
C|-0--0-0-0-0-3-2-0-2b3--|  
   P.M.............  

riff5  

riff2  

riff5 e 6  


intro:  
riff 1A  
guitarra3  



guit 3    
                                                           
D|--------------------------------|--------------------------------------|  
A|--------------------------------|--------------------------------------|  
F|--------------------------------|--------------------------------------|  
C|---7----7----7----7----7----7---|---10---10---10---10---10---10--------|  
G|-5----5----5----5----5----5-----|/8----8----8----8----8----8-----------|  
C|--------------------------------|--------------------------------------|  
   P.M...........................................................    


                                                              
D|--------------------------------|--------------------------------------|  
A|--------------------------------|--------------------------------------|  
F|--------------------------------|--------------------------------------|  
C|---7----7----7---8----8--7---7--|----10-----12-----12-10----10-8----8--|  
G|-5----5----5--------5------5----|-/8-----8------8--------8--------8----|  
C|--------------------------------|--------------------------------------|  
   P.M..................................................................    


guitarra 2 - 1º verso  

D|-------------------|--------------------|  
A|-------------------|--------------------|  
F|-------------------|--------------------|  
C|-------------------|--------------------|  
G|-------------------|--------------------|  
C|-0--0-0-0-0--0-0-0-|-3--3-3-3-3--3-3-3--|  


Intro: Riff 1 Riff 2 (Riff 3) Conversion, software version 7.0, (Riff 1) Looking at life through the eyes of a tire hub, (Riff 3) Eating seeds as a past time activity, (Riff 1) The toxicity of our city, of our city, (Riff 2) You, what do you own the world? How do you own disorder, disorder, (Riff 2) Now, somewhere between the sacred silence, Sacred silence and sleep, (Riff 2) Somewhere, between the sacred silence and sleep, (Riff 2) Disorder, disorder, disorder. (riff 1) (Riff 3) More wood for their fires, loud neighbors, (Riff 1) Flashlight reveries caught in the headlights of a truck, (Riff 3) Eating seeds as a past time activity, (Riff 1) The toxicity of our city, of our city, (Riff 2) You, what do you own the world? How do you own disorder, disorder, (Riff 2) Now, somewhere between the sacred silence, Sacred silence and sleep, Somewhere, between the sacred silence and sleep, (Riff 2) Disorder, disorder, disorder. (Riff 4) (Riff 5) (Riff 6) (riff 5) (Riff 2) You, what do you own the world? How do you own disorder, (Riff 2) Now, somewhere between the sacred silence, Sacred silence and sleep, (Riff 2) Somewhere, between the sacred silence and sleep, (Riff 2) Disorder, disorder, disorder. (Riff 5) (Riff 6) When I became the sun, I shone life into the man's hearts, When I became the sun, I shone life into the man's hearts.

Compartilhe esta música: novo

QR Code
Copiar