The legend of Zelda

System Of A Down

Tom: G
Introdução: G Gm D# Gm 
E|------------------------------------------------ 
B|------------------------------------------------    
G|-12---------12--10p9h10--12----------11p10h11--- 
D|-----12-12--------------------12-12------------- 
A|------------------------------------------------ 
E|------------------------------------------------ 
G Gm Link, he come to town D# A# Come to save the Princess Zelda Cm Ganon took her away A# Now the children don't play A D But they will when Link saves the day Hallelujah! G Gm Now Link, fill up your hearts D# A# So you can shoot your sword with power Cm And when you're feeling all down A# The fairy will come around A D So you'll be brave, and not a sissy coward
E|------------------------------------------------ 
B|------------------------------------------------ 
G|-12---------12--10p9h10--12----------11p10h11--- 
D|-----12-12--------------------12-12------------- 
A|------------------------------------------------ 
E|------------------------------------------------ 
G Gm Now Link has saved the day D# A# Put Ganon in his grave Cm So now Zelda is free A# And now our hero shall be A D G Link! I think your name shall go down into history
e|------------15---13-11-11h13p11s10---10-10-10-8-8-10-11-- 
B|-------15------------------------------------------------ 
G|-12------------------------------------------------------ 
D|--------------------------------------------------------- 
A|--------------------------------------------------------- 
E|--------------------------------------------------------- 
 
e|-11-10-8-6-6-8-10--10-8-6-5---5-5-5-5--5-5-10- 
B|---------------------------------------------- 
G|---------------------------------------------- 
D|---------------------------------------------- 
A|---------------------------------------------- 
E|----------------------------------------------

Compartilhe esta música: novo

QR Code
Copiar