RouletteCifra Verificada

System Of A Down

Tom: Cm

Afinação: D G C F A d 

Intro: Dm(no5) C(no5) Eb(no5) Bb(no5) 

              C(no5) Dm(no5) F(no5) C(no5) Eb(no5) Bb(no5)  

Dm(no5)        F(no5)             C(no5)        Eb(no5)   
 I have a problem that I can not explain   
Eb (no5)     Bb(no5)          C(no5)      Dm(no5)  
   I have no reason why it should've been so plain   
Dm(no5)        F(no5)           C(no5)    Eb(no5)   
  I have no questions but i sure have excuse   
Eb(no5)  Bb(no5)         C(no5)         Dm(no5) 
I lack the reason why I should be so confused   
   
 A(no5)   C(no5)     Bb(no5)    C(no5)    
I know, how I feel when i'm around you   
Dm(no5)   A(no5)    C(no5)    Bb(no5)     C(no5)   
  I don't know, how I feel when i'm around you   

Dm(no5)  F(no5)  C(no5) Eb(no5) Bb(no5) 

C(no5) Dm(n5) F(no5) C(no5) Eb(no5) Bb(no5) 
  Around you   

 

Solo: Dm(no5) F(no5) C(no5) Eb(no5) Bb(no5) C(no5) (4x)                 
   

d|---10---10-12-13---12-13-15---12-13-15-13-12/10-12-13-12-10-10-| 
A|---------------------------------------------------------------| 
F|---------------------------------------------------------------| 
C|---------------------------------------------------------------| 
G|---------------------------------------------------------------| 
D|---------------------------------------------------------------| 

d|-5-5--5-6-8-6-5\3-5-6-5-3-3-------4/6-5-5-3-3-1-1/--10--| 
A|-----------------------------1-1--6/8-6-6-5-5-3-3-------| 
F|--------------------------------------------------------| 
C|--------------------------------------------------------| 
G|--------------------------------------------------------| 
D|--------------------------------------------------------| 

Solo 2 

d|---13---13-15-17---15-17-18---17-18-20-18-17-15-17-18-17-15-15-| 
A|---------------------------------------------------------------| 
F|---------------------------------------------------------------| 
C|---------------------------------------------------------------| 
G|---------------------------------------------------------------| 
D|---------------------------------------------------------------| 

d|--13----12-13-15-13-12-10-12-10-12--10-10-------------| 
A|------------------------------------------------10-10-| 
F|------------------------------------------------------| 
C|------------------------------------------------------| 
G|------------------------------------------------------| 
D|------------------------------------------------------| 

d|--15-13-13-12-12-10-10--| 
A|--17-15-15-13-13-11-11--| 
F|------------------------| 
C|------------------------| 
G|------------------------| 
D|------------------------| 

Dm(no5) A(no5) C(no5) Bb(no5) C(no5) I know, how I feel when i'm around you Dm(no5) A(no5) C(no5) Bb(no5) C(no5) I don't know, how I feel when i'm around you (2x) Dm(no5) F(no5) C(no5) Eb(no5) Bb(no5) C(no5) (4x)

Compartilhe esta música: novo

QR Code
Copiar